New Found Glory - Sonny Chords & Tabs

 

Sonny Chords & Tabs

New Found Glory Chords & Tabs

Version: 2 Type: Bass Tab 0 ratings
1 star 2 stars 3 stars 4 stars 5 stars
comments

Sonny Bass Tab

   
Song:Sonny
Band:New Found Glory
Album:Sticks & Stones
Tuning:Standard
Bassist:Ian Grushka
Tabbed By:Kyle-BNIrockZ(Mestupkid2791@aol.com)

Please rate this tab! Enjoy!

x = Mute note while playing

(Guitar Intro)

Intro(x1):
G|---2-44-2----2-44-2---------------------
D|--2------2--2------2-----44--------44---
A|00--------00----------2-4--2-4--2-4--2-4
E|--------------------22--------22--------

Verse(x4):
G|---2-44-2----2-44-2---------------------
D|--2------2--2------2-----44--------44---
A|00--------00----------2-4--2-4--2-4--2-4
E|--------------------22--------22--------

Chorus(x1):
G|--------------------------------------------------------------------------------------|
D|--------------------------------------------------------------------------------------|
A|-55555555--77777777--99xx99xx99xx9-7-55555555-77777777-99xx99xx99xx9-7-55555555--7777-|
E|--------------------------------------------------------------------------------------|

Intro(x1):
G|---2-44-2----2-44-2---------------------
D|--2------2--2------2-----44--------44---
A|00--------00----------2-4--2-4--2-4--2-4
E|--------------------22--------22--------

Verse(x4):
G|---2-44-2----2-44-2---------------------
D|--2------2--2------2-----44--------44---
A|00--------00----------2-4--2-4--2-4--2-4
E|--------------------22--------22--------
[ Tab from: http://www.guitartabs.cc/tabs/n/new_found_glory/sonny_btab_ver_2.html ]
Chorus(x1):
G|------------------------------------------------------------------------------------------|
D|------------------------------------------------------------------------------------------|
A|-55555555--77777777--99xx99xx99xx9-7-55555555-77777777-99xx99xx99xx9-7-55555555--77777777-|
E|------------------------------------------------------------------------------------------|

G|---------------------------------------------------------------|
D|---------------------------------------------------------------|
A|44444444-22222222-55555555-77777777-99999999-55555555-77777777-|
E|---------------------------------------------------------------|

(Guitar Pasue)

Solo(x2):
G|---2-44-2----2-2---------------------|
D|--2------2--2---2--------------------|
A|00--------00-------2-4-2-4---2-4-2-4-|
E|-----------------22--------22--------|

Chorus(x1):
G|------------------------------------------------------------------------------------------|
D|------------------------------------------------------------------------------------------|
A|-55555555--77777777--99xx99xx99xx9-7-55555555-77777777-99xx99xx99xx9-7-55555555--77777777-|
E|------------------------------------------------------------------------------------------|

G|---------------------------------------------|
D|---------------------------------------------|
A|44444444-22222222-55555555-77777777-99999999-|
E|---------------------------------------------|

G|---------------------------------------------------------------|
D|---------------------------------------------------------------|
A|55555555-77777777-44444444-22222222-55555555-77777777-99999999-|
E|---------------------------------------------------------------|
Comments