New Found Glory - Something I Call Personality Chords & Tabs

 

Something I Call Personality Chords & Tabs

New Found Glory Chords & Tabs

Version: 1 Type: Tab 0 ratings
1 star 2 stars 3 stars 4 stars 5 stars
comments

Something I Call Personality Tab

New Found Glory
Something I call Personality
Sticks and Stones
tabbed by Matt Fisher

Guitar 1 Intro
E|------------------------------------------------
A|--1---1----------2------------------------------
D|-2-2----4-2--4-2----2-4-2-----------------------
G|------------------------------------------------
B|------------------------------------------------
E|------------------------------------------------

Guitar 2 Intro
E|-0-0---------2-2-2--5-5-5-----------------------
A|-2-2--0-0-0--4-4-4--7-7-7-----------------------
D|------2-2-2-------------------------------------
G|------------------------------------------------
B|------------------------------------------------
E|------------------------------------------------

Verse Both Guitars
E|-0--0------2--2-5-5-----------------------------
A|-2--2-0--0-4--4-7-7-----------------------------
D|------2--2--------------------------------------
G|------------------------------------------------
B|------------------------------------------------
E|------------------------------------------------
Second part of ver is same chords palm muted
[ Tab from: http://www.guitartabs.cc/tabs/n/new_found_glory/something_i_call_personality_tab.html ]
Chorus
Guitar 1                         
E|-0-0-0-0---------------2-2-2-2-0-0-0-0----------
A|-2-2-2-2-0-0-0-0-4-4-4-4-4-4-4-2-2-2-2-0-0-0-0--
D|---------2-2-2-2-6-6-6-----------------2-2-2-2--
G|------------------------------------------------
B|------------------------------------------------
E|------------------------------------------------
 
E|-*2-2-2-2-5-5-5-5--------------------------------
A|-*4-4-4-4-7-7-7-7--------------------------------
D|------------------------------------------------
G|------------------------------------------------
B|------------------------------------------------
E|------------------------------------------------
Guitar 2 does the same thing, but where I have the asterisk
on the above part he does
E|------------------------------------------------
A|-6-6-6-6-7-7-7-7--------------------------------
D|------------------------------------------------
G|-8-8-8-8-9-9-9-9--------------------------------
B|------------------------------------------------

E|------------------------------------------------
A|-*4-4-4-4-7-7-7-7-------------------------------
D|------------------------------------------------
G|------------------------------------------------
B|------------------------------------------------
E|------------------------------------------------

Questions or Corrections
lowpen@hotmail.com
Comments