New Found Glory - So Many Ways Chords & Tabs

 

So Many Ways Chords & Tabs

New Found Glory Chords & Tabs

Version: 1 Type: Bass Tab

So Many Ways Bass Tab

Intro (x2)
G|---------------------------------------------------------------------------|
D|---------------------------------------------------------------------------|
A|---------------------------------------------------------------------------|
E|--555-3-33-3-3-------------------------------------------------------------|

Verse (x4) [not sure about timing...ur all smart people u can figure it out]
G|-----------------------------------------------------------------------------|
D|-----77-777-77-----44-555-77-----55-555-55-----44-444-44---------------------|
A|-555-----------555-----------222-----------222-----------55-33-55-33---------|
E|-----------------------------------------------------------------------------|

Verse Continued [really unsure about timing here]
G|---------------------------------------------------------------------------|
D|------4444-----------------------------------------------------------------|
A|-55-22-----5555------------------------------------------------------------|
E|---------------------------------------------------------------------------|
[ Tab from: http://www.guitartabs.cc/tabs/n/new_found_glory/so_many_ways_btab.html ]
Pre/Post/During Chorus (x2)
G|---------------------------------------------------------------------------|
D|-----------------555-4-2---------------------------------------------------|
A|--555-000000-555---------555-00000-----------------------------------------|
E|-----------------------------------33-33-33-33-33-33-----------------------|

--==||between parts thingy||==--
G|---------------------------------------------------------------------------|
D|---------------------------------------------------------------------------|
A|---------------------------------------------------------------------------|
E|--55-55--------------------------------------------------------------------|
BACK TO VERSE

Bridge                   Ending note
G|---------------------|-----------------------------------------------------|
D|---------------------|-----------------------------------------------------|
A|-5555-2222-----------|-----5-----------------------------------------------|
E|-----------2222-3333-|-----------------------------------------------------|

  Thanks to allen...For this tab....

HOPE YOU LIKE IT....