New Found Glory - Singled Out Chords & Tabs

 

Singled Out Chords & Tabs

New Found Glory Chords & Tabs

Version: 3 Type: Tab 0 ratings
1 star 2 stars 3 stars 4 stars 5 stars
comments

Singled Out Tab

   
Artist: New Found Glory
Song:   Singled Out
Album:  Sticks and Stones
Tabbed by:skot45
Email: skot45@excite.com

Tuning: (E,A,D,G,B,E)

I don't have a guitar in front of me right now so this is pretty much
all from memory.  When I get a chance to sit with one I'll correct it.

I didn't put how many times to strum EVERYTHING I'm sure it's pretty 
self explanitory

Intro:
e|----------------------------------------|
B|----------------------------------------|
G|-5-----5---5-7-5-----5-----5-7---5-7----| 
D|---8-8---8-------8-8---8-5-----3--------|   2x
A|----------------------------------------|
E|----------------------------------------|

Lead intro:
e|---------------------------------------------------|
B|---------------------------------------------------|
G|-10-7-5-3-10-11-10-7-5-3-10-7-5-3-5-3-7-5-3-5-3----|
D|--x-x-x-x--x--x--x-x-x-x--x-x-x-x-x-x-x-x-x-x-x----|
A|--8-5-3-1--8--9--8-5-3-1--8-5-3-1-3-1-5-3-1-3-1----|
E|---------------------------------------------------|
[ Tab from: http://www.guitartabs.cc/tabs/n/new_found_glory/singled_out_tab_ver_3.html ]
Rhythm intro:
e|------------------|
B|------------------|
G|---3-5-8---3-5-8--|
D|-5-3-5-8-5-3-5-8--|
A|-5-1-3-6-5-1-3-6--|
E|-3-------3-----6--|

Verse:
e|---------------------------------------|
B|---------------------------------------|
G|---3-5-8-5---3-5-8-5---3-5-8-5---3-5-8-|
D|-5-3-5-8-5-5-3-5-8-5-5-3-5-8-5-5-3-5-8-|
A|-5-1-3-6-3-5-1-3-6-3-5-1-3-6-3-5-1-3-6-|
E|-3---------3---------3---------3-----6-|

Chorus:
e|---------|         ---
B|---------|         ---
G|---8-----|repeat as-8-
D|-8-8-5-3-|necessary-8-
A|-8-6-5-3-|  then:  -6-
E|-6---3-1-|         -6-

Pre-Bridge Lead/Outro
e|-------------------------------------|
B|-------------------------------------|
G|-5-3-3-5-5-5-7-5-3-3-5-3---5-7---5-7-|
D|-x-x-x-x-x-x-x-x-x-x-x-x-5-x-x-3-x-x-|
A|-3-1-1-3-1-3-5-3-1-1-3-1-x-3-5-x-3-5-|
E|-------------------------3-----1-----|

Bridge
e|-------------------------------------------|
B|-------------------------------------------|
G|-8-x-x-x-8-x-x-x-8-x-x-x-10-10-10-10-10-10-|
D|-8-x-x-x-8-x-x-x-8-x-x-x-10-10-10-10-10-10-|
A|-6-x-x-x-6-x-x-x-6-x-x-x--8--8--8--8--8--8-|
E|-6-x-x-x-6-x-x-x-6-x-x-x--8--8--8--8--8--8-|

Well thats pretty much how I've been playing it.  E-mail me how bad/good you
think it is.  thanks
Comments