New Found Glory - Singled Out Chords & Tabs

 

Singled Out Chords & Tabs

New Found Glory Chords & Tabs

Version: 2 Type: Tab 0 ratings
1 star 2 stars 3 stars 4 stars 5 stars
comments

Singled Out Tab

   
Title: Singled Out
Artist: New Found Glory
Album: Sticks and stones

Tabbed by: Mark Brown  (markusbrownus2@hotmail.com)

Tuning: Dropped D (D A D G B E)

One of my all time favourite songs, i especially ike the heavy 
part so i didnt see a tab for this song so i have done i, quite 
easy and sounds great even with one guitar! enjoy

Intro 
gtr 1 ( i dont think this riff is played on the guitar but here it is anyway)
E|---------------------------------------------------------------||
B|---------------------------------------------------------------||
G|--5--3----3--5--3--5--7--5--3---3--5--3--0--5----7------5--7---||
D|-----------------------------------------------------3---------||
A|---------------------------------------------------------------||
D|---------------------------------------------------------------||

Gtr 2 (dist)
E|----------------------------------------------------------------------||
B|----------------------------------------------------------------------||
G|--------------3--3--3--3--5--5--5--5--8--8--8--8--------------3--3--3-||
D|--5--5--5--5--3--3--3--3--5--5--5--5--8--8--8--8--5--5--5--5--3--3--3-||
A|--5--5--5--5--1--1--1--1--3--3--3--3--6--6--6--6--5--5--5--5--1--1--1-||
D|--5--5--5--5--------------------------------------5--5--5--5----------||

Gtr 1 (dist)
E|--------------------------------------------------------------------||
B|--------------------------------------------------------------------||
G|-9---7-7-7--5--3-3-3--9--12--9--7--7--7--9---7-7-7--5--3-3-3--5--3--||
D|-x---x-x-x--x--x-x-x--x---x--x--x--x--x--x---x-x-x--x--x-x-x--x--x--||
A|-7---5-5-5--3--1-1-1--7--10--7--5--5--5--7---5-5-5--3--1-1-1--3--1--||
D|--------------------------------------------------------------------||

E|-----------------------------------------||
B|-----------------------------------------||
G|--3--5--5--5--5--5--5--5--5--------------||
D|--3--5--5--5--5--5--5--5--5--1-----------||
A|--1--3--3--3--3--3--3--3--3--1-----------||
D|-----------------------------1-----------||

E|-------------------------------||
B|-------------------------------||
G|--5--7--5--3--5--3-------------||
D|--x--x--x--x--x--x-------------||
A|--3--5--3--1--3--1-------------||
D|-------------------------------||

Gtr 1&2 
       p.m--------|    p.m-------|     p.m-------|     p.m--------|
E|------------------------------------------------------------------||
B|------------------------------------------------------------------||
G|------------------3---------------5---------------8---------------||
D|--5---------------3--3-3-3-3-3-3--5--5-5-5-5-5-5--8--8-8-8-8-8-8--||
A|--5--5-5-5-5-5-5--1--1-1-1-1-1-1--3--3-3-3-3-3-3--6--6-6-6-6-6-6--||
D|--5--5-5-5-5-5-5--------------------------------------------------||

      p.m---------|   p.m---------|
E|--------------------------------------------------------||
B|--------------------------------------------------------||
G|------------------3---------------5-5-5-5-5-5-5-5-------||
D|--5---------------3--3-3-3-3-3-3--5-5-5-5-5-5-5-5---1---||
A|--5--5-5-5-5-5-5--1--1-1-1-1-1-1--3-3-3-3-3-3-3-3---1---||
D|--5--5-5-5-5-5-5------------------------------------1---||

Chorus
Gtr 1&2
E|-------------------------------------------------------------------||
B|-------------------------------------------------------------------||
G|-3-3-3-3-3-3-3-3--8-8-8-8-8-8-8-8----------------------------------||
D|-3-3-3-3-3-3-3-3--8-8-8-8-8-8-8-8--5-5-5-5-5-5-5-5--3-3-3-3-3-3-3--||
A|-1-1-1-1-1-1-1-1--6-6-6-6-6-6-6-6--5-5-5-5-5-5-5-5--3-3-3-3-3-3-3--||
D|-----------------------------------5-5-5-5-5-5-5-5--3-3-3-3-3-3-3--||
[ Tab from: http://www.guitartabs.cc/tabs/n/new_found_glory/singled_out_tab_ver_2.html ]
Gtr 1
E|---------------------------------------------------------||
B|---------------------------------------------------------||
G|--5--3---3--5--3--3--7--5--3---3--5--3----5---7----5--7--||
D|--x--x---x--x--x--x--x--x--x---x--x--x----x---x----x--x--||
A|--3--1---1--3--1--3--5--3--1---1--3--1----3---5----3--5--||
D|---------------------------------------------------------||
 
 p.m----|
E|----------------------------||
B|----------------------------||
G|----------------------------||
D|----------1-----------------||
A|-1-1-1-1--1-----------------||
D|-1-1-1-1--1-----------------||

Verse
Gtr 1&2 
       p.m--------|    p.m-------|     p.m-------|     p.m--------|
E|------------------------------------------------------------------||
B|------------------------------------------------------------------||
G|------------------3---------------5---------------8---------------||
D|--5---------------3--3-3-3-3-3-3--5--5-5-5-5-5-5--8--8-8-8-8-8-8--||
A|--5--5-5-5-5-5-5--1--1-1-1-1-1-1--3--3-3-3-3-3-3--6--6-6-6-6-6-6--||
D|--5--5-5-5-5-5-5--------------------------------------------------||

      p.m---------|   p.m---------|
E|--------------------------------------------------------||
B|--------------------------------------------------------||
G|------------------3---------------5-5-5-5-5-5-5-5-------||
D|--5---------------3--3-3-3-3-3-3--5-5-5-5-5-5-5-5---1---||
A|--5--5-5-5-5-5-5--1--1-1-1-1-1-1--3-3-3-3-3-3-3-3---1---||
D|--5--5-5-5-5-5-5------------------------------------1---||

Chorus
Gtr 1&2
E|-------------------------------------------------------------------||
B|-------------------------------------------------------------------||
G|-3-3-3-3-3-3-3-3--8-8-8-8-8-8-8-8----------------------------------||
D|-3-3-3-3-3-3-3-3--8-8-8-8-8-8-8-8--5-5-5-5-5-5-5-5--3-3-3-3-3-3-3--||
A|-1-1-1-1-1-1-1-1--6-6-6-6-6-6-6-6--5-5-5-5-5-5-5-5--3-3-3-3-3-3-3--||
D|-----------------------------------5-5-5-5-5-5-5-5--3-3-3-3-3-3-3--||

Gtr 1
E|---------------------------------------------------------||
B|---------------------------------------------------------||
G|--5--3---3--5--3--3--7--5--3---3--5--3----5---7----5--7--||
D|--x--x---x--x--x--x--x--x--x---x--x--x----x---x----x--x--||
A|--3--1---1--3--1--3--5--3--1---1--3--1----3---5----3--5--||
D|---------------------------------------------------------||

gtr 1&2
     p.m--|     p.m--|    p.m--|
E|------------------------------------------||
B|------------------------------------------||
G|------------------------------------------||
D|-1---------1---------1---------3-3-3-3----||
A|-1--1-1-1--1--1-1-1--1--1-1-1--3-3-3-3----||
D|-1--1-1-1--1--1-1-1--1--1-1-1--3-3-3-3----||

     p.m--|     p.m--|
E|-------------------------------||
B|-------------------------------||
G|-------------------------------||
D|-1---------1---------1---------||
A|-1--1-1-1--1--1-1-1--1---------||
D|-1--1-1-1--1--1-1-1--1---------||

Chorus
Gtr 1&2
E|-------------------------------------------------------------------||
B|-------------------------------------------------------------------||
G|-3-3-3-3-3-3-3-3--8-8-8-8-8-8-8-8----------------------------------||
D|-3-3-3-3-3-3-3-3--8-8-8-8-8-8-8-8--5-5-5-5-5-5-5-5--3-3-3-3-3-3-3--||
A|-1-1-1-1-1-1-1-1--6-6-6-6-6-6-6-6--5-5-5-5-5-5-5-5--3-3-3-3-3-3-3--||
D|-----------------------------------5-5-5-5-5-5-5-5--3-3-3-3-3-3-3--||

Gtr 1
E|---------------------------------------------------------||
B|---------------------------------------------------------||
G|--5--3---3--5--3--3--7--5--3---3--5--3----5---7----5--7--||
D|--x--x---x--x--x--x--x--x--x---x--x--x----x---x----x--x--||
A|--3--1---1--3--1--3--5--3--1---1--3--1----3---5----3--5--||
D|---------------------------------------------------------||

gtr 1&2
     p.m--|     p.m--|    p.m--|
E|------------------------------------------||
B|------------------------------------------||
G|------------------------------------------||
D|-1---------1---------1---------3-3-3-3----||
A|-1--1-1-1--1--1-1-1--1--1-1-1--3-3-3-3----||
D|-1--1-1-1--1--1-1-1--1--1-1-1--3-3-3-3----||

     p.m--|     p.m--|
E|-------------------------------||
B|-------------------------------||
G|-------------------------------||
D|-1---------1---------1---------||
A|-1--1-1-1--1--1-1-1--1---------||
D|-1--1-1-1--1--1-1-1--1---------||
Comments