New Found Glory - Singled Out Chords & Tabs

 

Singled Out Chords & Tabs

New Found Glory Chords & Tabs

Version: 1 Type: Bass Tab 0 ratings
1 star 2 stars 3 stars 4 stars 5 stars
comments

Singled Out Bass Tab

New Found Glory – Singled Out
Tabbed By Matt Gaudet
Fairly easy song to play, I just took the guitar chords and turned them into the bass notes so it may be a little wrong……
Email me at shuvit138@skateboard.com for any corrections

Intro
G|-------------------------------------|--2nd Time End With--|
D|----------------------------1-1-1-1--|---------------------|
A|-----------1-1-1-1-3-3-3-3-----------|---------------------|
E|--3-3-3-3----------------------------|--3 hold-------------|
[ Tab from: http://www.guitartabs.cc/tabs/n/new_found_glory/singled_out_btab.html ]
Verse
G|--------------------------------------|--4th Time-----------------------------------|
D|-----------------------------1-1-1-1--|---------------------------------------------|
A|-----------1-1-1-1-3-3-3-3------------|-----------1-1-1-1--3-3-3-3-3-3-3-3----------|
E|--3-3-3-3-----------------------------|--3-3-3-3----------------------------3 hold--|

Chorus
G|--------------------------------------------------|   |--2nd time--|
D|--------------1--1--1--1--------------------------|   |------------|
A|--1--1--1--1--------------------------------------|   |--1 hold----|
E|--------------------------3--3--3--3--1--1--1--1--|   |------------|
Bridge
G|-----------------|--4th Time--|
D|-----------1-11--|------------|
A|--1--1--1--------|--1--1--1---|
E|-----------------|------------|

Outro
G|-----------------|--2th Time--|
D|-----------1-11--|------------|
A|--1--1--1--------|--1--1--1---|
E|-----------------|------------|


Intro: x2
Verse: x4
Chorus: x2
Verse: x4
Chorus: x3
Bridge: x4
Chorus: x6
Outro: x2
Comments