New Found Glory - Sincerely Me Chords & Tabs

 

Sincerely Me Chords & Tabs

New Found Glory Chords & Tabs

Version: 4 Type: Tab 0 ratings
1 star 2 stars 3 stars 4 stars 5 stars
comments

Sincerely Me Tab

Artist: New Found Glory
Track: "Sincerely Me"
Album: New Found Glory
Tabbed by Mark Brown E-mail: markusbrownus2@hotmail.com

Bass Intro

Intro For Guitars
e--------------------|
B--------------------|
G--------------------|
D---7~---------------|
A---7~---------------|
E---5~---------------|
 So sorry so

Pre-chorus
e------------------------------------------|
B------------------------------------------|
G------------------------------------------|
D--7-7-7-7-7-7-7-7-7-7-7-7-7-7-7-7---------|
A--7-7-7-7-7-7-7-7-7-7-7-7-7-7-7-7---------|
E--5-5-5-5-5-5-5-5-5-5-5-5-5-5-5-5---------|
  P.M______________|
after "I never thought you knew"

chorus   4x
e----------------------------------------|
B----------------------------------------|
G----------------------------------------|
D---5-5--7-7-10-10-10-10-10-10-10-10-----|
A---5-5--7-7-10-10-10-10-10-10-10-10-----|
E---3-3--5-5--8--8--8--8--8--8--8--8-----|
 "so can you see
  your seeing less of me touring"

riff
e------------------------------------|
B------------------------------------|
G----------------------5-5-5-5/4-----|
D--5-5-5/4-4-4/2-2-2---5-5-5-5/4-----| 4x
A--5-5-5/4-4-4/2-2-2---3-3-3-3/2-----|
E--3-3-3/2-2-2/0-0-0-----------------|
PM___|  ___|   _______| ____|
 "and I'm as good as dead"
 

e--------------------|
B--------------------|
G--------------------|
D---7~---------------|
A---7~---------------|
E---5~---------------|
after "this is the part where you leave me"

pre-chorus
e------------------------------------------|
B------------------------------------------|
G------------------------------------------|
D--7-7-7-7-7-7-7-7-7-7-7-7-7-7-7-7---------|
A--7-7-7-7-7-7-7-7-7-7-7-7-7-7-7-7---------|
E--5-5-5-5-5-5-5-5-5-5-5-5-5-5-5-5---------|
  P.M______________|
 after "I never thought you knew"

chorus 4x
e----------------------------------------|
B----------------------------------------|
G----------------------------------------|
D---5-5--7-7-10-10-10-10-10-10-10-10-----|
A---5-5--7-7-10-10-10-10-10-10-10-10-----|
E---3-3--5-5--8--8--8--8--8--8--8--8-----|
 "so can you see
  your seeing less of me touring"
[ Tab from: http://www.guitartabs.cc/tabs/n/new_found_glory/sincerely_me_tab_ver_4.html ]
riff
e------------------------------------|
B------------------------------------|
G----------------------5-5-5-5/4-----|
D--5-5-5/4-4-4/2-2-2---5-5-5-5/4-----|4x
A--5-5-5/4-4-4/2-2-2---3-3-3-3/2-----|
E--3-3-3/2-2-2/0-0-0-----------------|
PM___|  ___|   _______| ____|
 " and I'm as good as dead"

break
e--------------------------|
B--------------------------|
G--------------------------|
D--5-16x-7-16x-------------|
A--5-----7-----------------|
E--3-----5-----------------|
    P.M graderly get louder 
  
                                        PLAY TWICE
e----------------------------------|------------------|
B----------------------------------|------------------|
G--5-5-5-5-5-5-5-5-5-5-5-5-5-5-5-5-|--------------------5-|
D--5-5-5-5-5-5-5-5-5-5-5-5-5-5-5-5-|-5-5-5-5-5---5 10x--5-|
A--3-3-3-3-3-3-3-3-3-3-3-3-3-3-3-3-|-5-5-5-5-5---5------3-|
E----------------------------------|-3-3-3-3-3---3--------|
    P.M___________|                THIS PART IS PLAYED QUICKLY  (listen to cd to get the right                                                                get the right strum pattern)   
 have...........................to       say                      strum pattern)  

lead guitar                     on first       on second
e---------------------------|--------------|---------------|
B---------------------------|--------------|---------------|
G---------------------------|----------4---|---------------|
D-------4-5-----4-5---------|4-4-4-4-5---5-|-3-3-3-3-3-3-|2x
A-----------0-0-----3-3-3-3-|--------------|---------------|
E---3-3---------------------|--------------|---------------|

rhythum guitar
e-------------------------------------------------|
B-------------------------------------------------|
G-------------------------------------------------|
D--5-5-5-5-7-7-7-7-10-10-10-10-10-10-10-10--------|2x
A--5-5-5-5-7-7-7-7-10-10-10-10-10-10-10-10--------|
E--3-3-3-3-5-5-5-5--8--8--8--8--8--8--8--8--------|

outro  play 4x
e----------------------------------------|-----------|
B----------------------------------------|-----------|
G----------------------------------------|-----------|
D---5-5--7-7-10-10-10-10-10-10-10-10-----|--5~-------|
A---5-5--7-7-10-10-10-10-10-10-10-10-----|--5~-------|
E---3-3--5-5--8--8--8--8--8--8--8--8-----|--3~-------|
 " can you see                            "stopped beating"
   your seeing less of me touring"  
      
Comments