New Found Glory - Sincerely Me Chords & Tabs

 

Sincerely Me Chords & Tabs

New Found Glory Chords & Tabs

Version: 3 Type: Tab 0 ratings
1 star 2 stars 3 stars 4 stars 5 stars
comments

Sincerely Me Tab

New Found Glory SIncerely me.
 Tabbed by Rico NFGRules@hotmail.com.

intro/verse 
e|---------------- 
B|---------------- 
G|-6--6----------- 
D|-6--6---4--4---- 
A|-4--4---4--4---- 
E|--------2--2---- 

music low, we're all alone... 
e|-------------------------- 
B|-------------------------- 
G|-------------------------- 
D|-8--4--8--4--8--4---4--6-- 
A|-8--4--8--4--8--4---4--6-- 
E|-6--2--6--2--6--2---2--4-- 
[ Tab from: http://www.guitartabs.cc/tabs/n/new_found_glory/sincerely_me_tab_ver_3.html ]
tell me about your.... 
e|------------------------ 
B|------------------------ 
G|-6-----6-----6---------- 
D|-6--4--6--4--6--4--8--6- 
A|-4--4--4--4--4--4--8--6- 
E|----2-----2-----2--6--4- 

i'm writing it down... 
e|----------- 
B|----------- 
G|-6--------- 
D|-6--6--4--- 
A|-4--6--4--- 
E|----4--2--- 


-------------------------------------------------------------------  
:: Ultimate Guitar Archive :: 
http://www.ultimate-guitar.com 



Comments