New Found Glory - Second To Last Chords & Tabs

 

Second To Last Chords & Tabs

New Found Glory Chords & Tabs

Version: 3 Type: Tab 0 ratings
1 star 2 stars 3 stars 4 stars 5 stars
comments

Second To Last Tab

e------------------------------------------------------------------------|
B------------------------------------------------------------------------|
G--9-9-9--------------9-9-9--------------9-9-9---------------------------|
D--9-9-9--9--7-7-7-9--9-9-9--9--1111119--9-9-9--9--7-7-7-9--6-6-6--7-7---|
A--7-7-7--9--7-7-7-9--7-7-7--9--1111119--7-7-7--9--7-7-7-9--6-6-6--7-7---|
E---------7--5-5-5-7---------7--9-9-9-7---------7--5-5-5-7--4-4-4--5-5---| x2


e------------------------------------------------------------------------|
B--------------------------------8p7-------------------------------------|
G--9----------------9-------7h8------------------------------------------|
D--9--9-7--11--9-9--9--9-7-----------------------------------------------|
A--7--9-7--11--9-9--7--9-7-----------------------------------------------|
E-----7-5--9---7-7-----7-5-----------------------------------------------| x3

e------------------------------------------------------------------------|
B------------------------------------------------------------------------|
G--9----------------9----------------------------------------------------|
D--9--9-7--11--9-9--9--9-7-7-7-7-7---------------------------------------|
A--7--9-7--11--9-9--7--9-7-7-7-7-7---------------------------------------|
E-----7-5--9---7-7-----7-5-5-5-5-5---------------------------------------|


e------------------------------------------------------------------------|
B------------------------------------------------------------------------|
G--9-9-------9-9--------9-9-------4-4------------------------------------|
D--9-9--7-7--9-9--11-9--9-9--7-7--4-4---11-9-----------------------------|
A--7-7--7-7--7-7--11-9--7-7--7-7--2-2---11-9-----------------------------|
E-------5-5-------9--7-------5-5--------9--7-----------------------------| x3

[ Tab from: http://www.guitartabs.cc/tabs/n/new_found_glory/second_to_last_tab_ver_3.html ]
e------------------------------------------------------------------------|
B------------------------------------------------------------------------|
G--9-9-9--------------9-9-9--------------9-9-9---------------------------|
D--9-9-9--9--7-7-7-9--9-9-9--9--1111119--9-9-9--9--7-7-7-9--6-6-6--7-7---|
A--7-7-7--9--7-7-7-9--7-7-7--9--1111119--7-7-7--9--7-7-7-9--6-6-6--7-7---|
E---------7--5-5-5-7---------7--9-9-9-7---------7--5-5-5-7--4-4-4--5-5---| x4


e--------------------------------------------------------------------------|
B--------------------------------7p4---------------------------------------|
G--9----------------9-------4h6--------------------------------------------|
D--9--9-7--11--9-9--9--9-7-------------------------------------------------|
A--7--9-7--11--9-9--7--9-7-------------------------------------------------|
E-----7-5--9---7-7-----7-5-------------------------------------------------| x2

e-------------------------------------------------------------------------|
B-------------------------------------------------------------------------|
G--9----------------9-----------------------------------------------------|
D--9--9-7--11--9-9--9--9-7-7-7-7-7----------------------------------------|
A--7--9-7--11--9-9--7--9-7-7-7-7-7----------------------------------------|
E-----7-5--9---7-7-----7-5-5-5-5-5----------------------------------------|


e-------------------------------------------------------------------------|
B-------------------------------------------------------------------------|
G--9-9-------9-9--------9-9-------4-4-------------------------------------|
D--9-9--7-7--9-9--11-9--9-9--7-7--4-4--11-9-------------------------------|
A--7-7--7-7--7-7--11-9--7-7--7-7--2-2--11-9-------------------------------|
E-------5-5-------9--7-------5-5-------9--7-------------------------------|x2


e-------------------------------------------------------------------------|
B-------------------------------------------------------------------------|
G--9-9-9--------------9-9-9--------------9-9-9----------------------------|
D--9-9-9--9--7-7-7-9--9-9-9--9--1111119--9-9-9--9--7-7-7-9--6-6-6---7-7---|
A--7-7-7--9--7-7-7-9--7-7-7--9--1111119--7-7-7--9--7-7-7-9--6-6-6---7-7---|
E---------7--5-5-5-7---------7--9-9-9-7---------7--5-5-5-7--4-4-4---5-5---|x4
Comments