New Found Glory - Second To Last Chords & Tabs

 

Second To Last Chords & Tabs

New Found Glory Chords & Tabs

Version: 2 Type: Tab 0 ratings
1 star 2 stars 3 stars 4 stars 5 stars
comments

Second To Last Tab

e----------------------------------------------------------|
B----------------------------------------------------------|
G---8-8-8-----------------8-8-8----------------------------|
D---8-8-8---8---6-6-6-6---8-8-8---8--10101010--------------|
A---6-6-6---8---6-6-6-6---6-6-6---6------------------------|
E-----------6---4-4-4-4-----------6---8-8-8-8--------------|

[ Tab from: http://www.guitartabs.cc/tabs/n/new_found_glory/second_to_last_tab_ver_2.html ]
e----------------------------------------------------------|
B----------------------------------------------------------|
G---8-8-8--------------------------------------------------|
D---8-8-8---8---6-6-6-6---5-5-5---6-6----------------------|
A---6-6-6---8---6-6-6-6---5-5-5---6-6----------------------|
E-----------6---4-4-4-4---3-3-3---4-4----------------------|


e----------------------------------------------------------|
B----------------------------------------------------------|
G---8-8-8-----------------8-8-8----------------------------|
D---8-8-8---8---6-6-6-6---8-8-8---8--10101010--------------|
A---6-6-6---8---6-6-6-6---6-6-6---6------------------------|
E-----------6---4-4-4-4-----------6---8-8-8-8--------------|

[ Tab from: http://www.guitartabs.cc/tabs/n/new_found_glory/second_to_last_tab_ver_2.html ]
e----------------------------------------------------------|
B----------------------------------------------------------|
G---8-8-8--------------------------------------------------|
D---8-8-8---8---6-6-6-6---5-5-5---6-6----------------------|
A---6-6-6---8---6-6-6-6---5-5-5---6-6----------------------|
E-----------6---4-4-4-4---3-3-3---4-4----------------------|
Comments