New Found Glory - Scraped Knees Chords & Tabs

 

Scraped Knees Chords & Tabs

New Found Glory Chords & Tabs

Version: 1 Type: Tab 0 ratings
1 star 2 stars 3 stars 4 stars 5 stars
comments

Scraped Knees Tab

                           NEW FOUND GLORY
                            SCRAPED KNEES


STANDARD TUNING
EADGBe

during intro bass riff
------------------------------|
------------------------------|
---7-7----77----7-7-----------|
---7-7----77----7-7-----------|
---5-5----55----5-5-----------|
------------------------------|

-------------------------------------------------------------------------|
-------------------------------------------------------------------------|
---7-7-7-------------------7-7-7-------------------7-7-7-9-9-9-111111-9--|
---7-7-7-5-5-5-9-9-9-7-7-7-7-7-7-5-5-5-9-9-9-7-7-7-x-x-x-x-x-x--x-x-x-x--|
---5-5-5-5-5-5-9-9-9-7-7-7-5-5-5-5-5-5-9-9-9-7-7-7-5-5-5-7-7-7--9-9-9-7--|
---------3-3-3-7-7-7-5-5-5-------3-3-3-7-7-7-5-5-5-----------------------|

-----------------------------------------------------------------------|
-----------------------------------------------------------------------|
--7-7-7-------------------xxxx7-------------------7--------------------|
--7-7-7-5-5-5-9-9-9-7-7-7-xxxx7-xxxx5-xxxx9-xxxx7-7-xxxx5-xxxx9-xxxx7--|
--5-5-5-5-5-5-9-9-9-7-7-7-xxxx5-xxxx5-xxxx9-xxxx7-5-xxxx5-xxxx9-xxxx7--|
--------3-3-3-7-7-7-5-5-5-------xxxx3-xxxx7-xxxx5---xxxx3-xxxx7-xxxx5--|

-----------------------------------------------------------------------|
-----------------------------------------------------------------------|
-7-------------------7-------------------7-7-7-------------------7-7-7-|
-7-xxxx5-xxxx9-xxxx7-7-xxxx5-xxxx9-xxxx7-7-7-7-5-5-5-9-9-9-7-7-7-7-7-7-|
-5-xxxx5-xxxx9-xxxx7-5-xxxx5-xxxx9-xxxx7-5-5-5-5-5-5-9-9-9-7-7-7-5-5-5-|
---xxxx3-xxxx7-xxxx5---xxxx3-xxxx7-xxxx5-------3-3-3-7-7-7-5-5-5-------|

------------------------------------------------------------------|
------------------------------------------------------------------|
-------------------7-7-7-9-9-9-111111-9-7-7-7---------------------|
-5-5-5-9-9-9-7-7-7-x-x-x-x-x-x--x-x-x-x-7-7-7-5-5-5-9-9-9-7-7-7---|
-5-5-5-9-9-9-7-7-7-5-5-5-7-7-7--9-9-9-7-5-5-5-5-5-5-9-9-9-7-7-7---|
-3-3-3-7-7-7-5-5-5----------------------------3-3-3-7-7-7-5-5-5---|
[ Tab from: http://www.guitartabs.cc/tabs/n/new_found_glory/scraped_knees_tab.html ]
---------------------------------------------------------------------|
---------------------------------------------------------------------|
-7-7-7------------------------------7--7-7-7-7------------12-11-9-7--|
-7-7-7-5-5-5-9-9-9-7-7-7-5--5-5-5-5-7--7-7-7-7-7--7-7-7-7--x--x-x-x--|
-5-5-5-5-5-5-9-9-9-7-7-7-5--5-5-5-5-5--5-5-5-5-7--7-7-7-7-10--9-7-5--|
-------3-3-3-7-7-7-5-5-5-3--3-3-3-3------------5--5-5-5-5------------|

-----------------------------------------------|
-----------------------------------------------|
------------------7-7-7------------------------|
--5-5-5-5/7-7-7-7-7-7-7-5-5-5-9-9-9-7-7-7------|
--5-5-5-5/7-7-7-7-5-5-5-5-5-5-9-9-9-7-7-7------|
--3-3-3-3/5-5-5-5-------3-3-3-7-7-7-5-5-5------|

----------14--------------------------------------------------|
------------15------------------------------------------------|
--7-7----------77--7-7---7-9-11-14-play these a couple times--|
--7-7----------77--7-7---x-x--x--x----------------------------|
--5-5----------55--5-5---5-7--9-12----------------------------|
--------------------------------------------------------------|

-----------------------------------------------------------------|
-----------------------------------------------------------------|
-----7-x--------------------------------7-x----------------------|
--77-7-x----5-x----9-x----7--4h5p4---77-7-x----5-x----9-x----7---|
--55-5-x-55-5-x-99-9-x-77-7-------5--55-5-x-55-5-x-99-9-x-77-7---|
---------33-3-x-77-7-x-55-5-----------------33-3-x-77-7-x-55-5---|

--------------------------------------------------------------------------|
--------------------------------------------------------------------------|
-----7-x------------------------------------------------------------------|
--77-7-x----5-x----9-x----7-x-4h5p4-4h5p4-4h5p4-4h5p4-4h5p4-4h5p4-4h5p4---|
--55-5-x-55-5-x-99-9-x-77-7-x------5-----5-----5-----5-----5-----5-----5--|
---------33-3-x-77-7-x-55-5-x---------------------------------------------|

----------|
----------|
----------|
-4h5p4----|
------5---|
----------|


thats it
after this it just repeats the same stuff
later
Comments