New Found Glory - Passing Time Chords & Tabs

 

Passing Time Chords & Tabs

New Found Glory Chords & Tabs

Version: 1 Type: Tab 0 ratings
1 star 2 stars 3 stars 4 stars 5 stars
comments

Passing Time Tab

   
NEW FOUND GLORY-"Passing Time"

Tabbed by Jesse Kreger
http://www.angelfire.com/band/jimmirigg

          (H.)
e|--------*-*--*-*-|
B|--------*-*--*-*-|
G|7--7-7--7-*--*-*-| 8X
D|7--7-7----7--*-7-|
A|5--5-5-------7---|
E|-----------------|

CHORUS 
"Too close is too far away from you, you are the one and only sign..."
e|---------------------------------------------------------------------------|
B|---------------------------------------------------------------------------|
G|---------------------------------------------------------------------------|
D|9-9-9-9-9-9-9-9-5-5-5-5-5-5-5-5-5-9-9-9-9-9-9-9-9-9-9-5-5-5-5-5-5-5-5------|
A|9-9-9-9-9-9-9-9-5-5-5-5-5-5-5-5-5-9-9-9-9-9-9-9-9-9-9-5-5-5-5-5-5-5-5------|
E|7-7-7-7-7-7-7-7-3-3-3-3-3-3-3-3-3-7-7-7-7-7-7-7-7-7-7-3-3-3-3-3-3-3-3------|

"To say this world was meant for us I never knew all I needed was time..."
[ Tab from: http://www.guitartabs.cc/tabs/n/new_found_glory/passing_time_tab.html ]
e|2-3-5-3-2-3-2---232-------2-3-2------------------------------------------|
B|--------------3-----3---3-------3-5-3------------------------------------|
G|-------------------------------------------------------------------------|
D|-------------------------------------------------------------------------|
A|-------------------------------------------------------------------------|
E|-------------------------------------------------------------------------|

Repeat Verse
Repeat Chours 
e|--------------------------------------|
B|--------------------------------------|
G|7-7-XXXX------------------------------|
D|7-7-XXXX-9-9-XXXX-5-5-5-5-5-5-5-5-5-5-| 4X
A|5-5-XXXX-9-9-XXXX-5-5-5-5-5-5-5-5-5-5-|
E|---------7-7-XXXX-3-3-3-3-3-3-3-3-3-3-|

e|--------------------------------|
B|--------------------------------|
G|--------7-7-7-7-----------------|
D|9-9-9-9-7-7-7-7-5-5-5-5-5-5-5-5-| 2X
A|9-9-9-9-5-5-5-5-5-5-5-5-5-5-5-5-|
E|7-7-7-7---------3-3-3-3-3-3-3-3-|


e|-----------------------------------------|
B|-----------------------------------------|
G|-----------------------------------------|
D|7-5-4--7-5-4--7-5-4--7-5-4-------5-7-5-4-| 2X
A|---------------------------5-5-5---------|
E|-----------------------------------------|


Bridge PartI:
"can we make it through today?.."

BRidge
"I'm never too far away, I'm never too close behind,..."
e|----------------------------------|
B|----------------------------------|
G|--------9-9-9-9-------------------|
D|7-7-7-7-9-9-9-9-5-5-5-5-7-5-4-5-7-| 4X
A|7-7-7-7-7-7-7-7-5-5-5-5-----------|
E|5-5-5-5---------3-3-3-3-----------|

Finally End on G5
The End!!
Comments