New Found Glory - No News Is Good News Chords & Tabs

 

No News Is Good News Chords & Tabs

New Found Glory Chords & Tabs

Version: 5 Type: Tab 0 ratings
1 star 2 stars 3 stars 4 stars 5 stars
comments

No News Is Good News Tab

   
Song: No News is Good News
Band: New Found Glory
Album: Rock Against Bush Vol. 1
Label: Fat Wreck Chords
Tabbed By: Donahue2

Notes: I've noticed that all four of the other tabs of this song are     completely
       wrong, so here it is, complete and perfect.
       I'm not a fan of New Found Glory, but this is definitly one of the
       better songs off of this album.

Tuning: Standard (EADGBe)

INTRO:
e|--------------------|
B|--3-3-3--3-3-3-3-3--|
G|--2-2-2--0-0-0-0-0--|X4
D|--0-0-0--0-0-0-0-0--|
A|--------------------|
E|--------------------|

VERSE1:
e|--------------------|
B|--3-3-3--3-3-3-3-3--|
G|--2-2-2--0-0-0-0-0--|X15
D|--0-0-0--0-0-0-0-0--|
A|--------------------|
E|--------------------|

(Then, on 16th time):
e|-------------|
B|--3-3-3-3-3--|
G|--2-2-2-2-2--|
D|--0-0-0-0-0--|
A|-------------|
E|-------------|
"All along we follow blindly,
 Forcefed Primetime previewed nightly.
 Why would anybody leave the safety of their homes?
 I wonder why (I wonder why)
 I wonder why (I wonder why)
 Only disasters flood the headlines
 Other peoples misery on for the next three hours - Commercial free."

CHORUS:
e|---------------------------------|
B|---------------------------------|
G|-------------7-7-----------------|X3
D|--5-5-5-5-5--7-7--7-7-7/9-9-9-9--|
A|--5-5-5-5-5--5-5--7-7-7/9-9-9-9--|
E|--3-3-3-3-3-------5-5-5/7-7-7-7--|

(then, on 4th time):
e|-----------------------------------|
B|-----------------------------------|
G|--5-5-5-5-5-5-5-5-5-5-5-5-5-5-5-5--|
D|--5-5-5-5-5-5-5-5-5-5-5-5-5-5-5-5--|
A|--3-3-3-3-3-3-3-3-3-3-3-3-3-3-3-3--|
E|-----------------------------------|
"And I can't take much more of this,
 We're all so wrapped up in it,
 Nothing can change but the channel,
 So turn it off."

VERSE2:
e|--------------------|
B|--3-3-3--3-3-3-3-3--|
G|--2-2-2--0-0-0-0-0--|X13
D|--0-0-0--0-0-0-0-0--|
A|--------------------|
E|--------------------|

(Then, on 14th time):
e|--------------------|
B|--------------------|
G|--7-7-7-7-7--x-x-x--|
D|--7-7-7-7-7--x-x-x--|
A|--5-5-5-5-5--x-x-x--|
E|--------------------|
"I see Billboards on the horizon,
 I can't Imagine what they'll tell me:
 What to where,
 what to drink,
 where to eat,
 It's so easy not to think for yourself anymore (So naive)
 You don't have to do anything anymore."

CHORUS X2:
"And I can't take much more of this
We're all so wrapped up in it
Nothing will change but the channel
So I turn it off. (Whoa)
And I can't take much more of this
We're all so wrapped up in it
Nothing will change but the channel
So I turn it off."
[ Tab from: http://www.guitartabs.cc/tabs/n/new_found_glory/no_news_is_good_news_tab_ver_5.html ]
BREAKDOWN:
e|---------------------------------------------|
B|---------------------------------------------|
G|--9-9-9-9-9-9-9-9--11-11-11-11--12-12-12-12--|
D|--x-x-x-x-x-x-x-x--x--x--x--x---x--x--x--x---|
A|--7-7-7-7-7-7-7-7--9--9--9--9---10-10-10-10--|
E|---------------------------------------------|

e|---------------------------------------------|
B|---------------------------------------------|
G|--7-7-7-7-7-7-7-7--11-11-11-11--12-12-12-12--|
D|--x-x-x-x-x-x-x-x--x--x--x--x---x--x--x--x---|
A|--5-5-5-5-5-5-5-5--9--9--9--9---10-10-10-10--|
E|---------------------------------------------|

e|-----------------------------------------------------|
B|-----------------------------------------------------|
G|--14-14-14-14-14-14-14-14--16-16-16-16--14-14-14-14--|
D|--x--x--x--x--x--x--x--x---x--x--x--x---x--x--x--x---|
A|--12-12-12-12-12-12-12-12--14-14-14-14--12-12-12-12--|
E|-----------------------------------------------------|

e|------------------------------------------------|
B|------------------------------------------------|
G|--9-9-9-9-9-9-9-9--10-10-10-10--12--12--12--12--|
D|--x-x-x-x-x-x-x-x--x--x--x--x---x---x---x---x---|
A|--7-7-7-7-7-7-7-7--9--9--9--9---10--10--10--10--|
E|------------------------------------------------|

e|----------------------------------------------------|
B|----------------------------------------------------|
G|--12-12-12-12-12-12-12-12--12-12-12-12-12-12-12-12--|
D|--x--x--x--x--x--x--x--x---12-12-12-12-12-12-12-12--|
A|--10-10-10-10-10-10-10-10--10-10-10-10-10-10-10-10--|
E|----------------------------------------------------|
"We all give in,
 We all complain,
 We sit and wait for things to change,
 We're waiting."

BRIDGE:
e|--------------------|
B|--3-3-3--3-3-3-3-3--|
G|--2-2-2--0-0-0-0-0--|X7
D|--0-0-0--0-0-0-0-0--|
A|--------------------|
E|--------------------|

(Then, on eigth time):
e|-------------x-x-x--|
B|-------------x-x-x--|
G|--7-7-7-7-7--x-x-x--|
D|--7-7-7-7-7--x-x-x--|
A|--5-5-5-5-5--x-x-x--|
E|-------------x-x-x--|
"All along we follow blindly!
 All along we follow blindly!"

CHORUS X2:
"And I can't take much more of this,
 We're all so wrapped up in it,
 Nothing can change but the channel (And woah)
 I can't take much more of this,
 We're all so wrapped up in it,
 Nothing can change but the channel,
 So I turn it off."

e|--------------------|
B|--3-3-3--3-3-3-3-3--|
G|--2-2-2--0-0-0-0-0--|X3
D|--0-0-0--0-0-0-0-0--|
A|--------------------|
E|--------------------|

e|------|
B|--3~--|
G|--2~--|
D|--0~--|
A|------|
E|------|
"I turn it off."

| /  slide up
| \  slide down
| h  hammer-on
| p  pull-off
| ~  vibrato
| +  harmonic
| x  Mute note

Donahue2: point_blanc99@hotmail.com
Comments