New Found Glory - No News Is Good News Chords & Tabs

 

No News Is Good News Chords & Tabs

New Found Glory Chords & Tabs

Version: 4 Type: Tab 0 ratings
1 star 2 stars 3 stars 4 stars 5 stars
comments

No News Is Good News Tab

Tabbed bye: Josh Renneker
Tunning: I play it in drop d half step... (easier)

The intro is very easy yet no one seems to be getting it right
so I figured I'd do my own version. I believe the rest is quite
accurate also.


Intro/verse                         End On
Guitar 1
e-------------------------|     e-------------| 
B--3-3-3--3-3-3-3-3-------|     B--3-3-3-3-3--|
G--2-2-2--0-0-0-0-0--19x--|     G--2-2-2-2-2--|
D--0-0-0--0-0-0-0-0-------|     D--0-0-0-0-0--|
A-------------------------|     A-------------|
E-------------------------|     E-------------|

Intro/verse
Guitar 2 ... guitar 1 plays 12x then come in.
e------------------------|         End On
B------------------------|     B-------------|
G--7-7-7-------------7x--|     G--7-7-7-7-7--|
D--7-7-7-5-5-5-5-5-------|     D--7-7-7-7-7--|
A--5-5-5-5-5-5-5-5-------|     A--5-5-5-5-5--|
E--------5-5-5-5-5-------|     E-------------|
[ Tab from: http://www.guitartabs.cc/tabs/n/new_found_glory/no_news_is_good_news_tab_ver_4.html ]
Chorus
e--------------------------------------------------|
B--------------------------------------------------|
G------------5-5-5------------------------12-------|
D--5-5-5-5-5-5-5-5-7-7-7-9-9-9-9-9---2x---10--16x--|
A--5-5-5-5-5-7-7-7-7-7-7-9-9-9-9-9--------10-------|
E--5-5-5-5-5-------7-7-7-9-9-9-9-9--------10-------|

Interlude
Guitar 1
e------------------------------------------|
B------------------------------------------|
G------------------5-------2-------5-------|
D--2--16x--5--16x--5--16x--2--16x--5--16x--|
A--2-------5-------7-------0-------3-------|
E--2-------5-------------------------------|

Interlude
Guitar 2 
e-------------------------------------------------------------------|
B-------------------------------------------------------------------|
G--9-8x-11-4x-12-4x-7-8x-11-4x-12-4x-14-16x-9-8x-11-4x-12-8x-12-8x--|
D--x-----x-----x----x-----x-----x-----x-----x-----x-----x-----x-----|
A--7-----9----10----5-----9----10----12-----7-----9----10----10-----|
E-------------------------------------------------------------------|


Intro
Chorus
Verse
Chorus
Verse
Chorus
Interlude
Intro
Chorus
Intro
Comments