New Found Glory - No News Is Good News Chords & Tabs

 

No News Is Good News Chords & Tabs

New Found Glory Chords & Tabs

Version: 3 Type: Tab 0 ratings
1 star 2 stars 3 stars 4 stars 5 stars
comments

No News Is Good News Tab

   
-------------------------------------------------------------------------------
			     New found Glory - No news is good news
-------------------------------------------------------------------------------
Tabbed by: Tom Kyle
Email: Tombotownusa@hotmail.com
[ Tab from: http://www.guitartabs.cc/tabs/n/new_found_glory/no_news_is_good_news_tab_ver_3.html ]
Tuning: Standard
Intro + verse
e|---------------------------------------------------------------------------|
B|---------------------------------------------------------------------------|
G|--7-7-7--------------------------------------------------------------------|
D|--7-7-7-5-5-5-5-5----------------------------------------------------------|
A|--5-5-5-5-5-5-5-5----------------------------------------------------------|
E|--------3-3-3-3-3----------------------------------------------------------|
Chorus
e|---------------------------------------------------------------------------|
B|---------------------------------------------------------------------------|
G|------------777--------4-4-4-4-4-----5-5-5-5-5-5-5-5-5-5-5-5-5-5-5-5-------|
D|--5-5-5-5-5-777-7-7-7--4-4-4-4-4--x2-5-5-5-5-5-5-5-5-5-5-5-5-5-5-5-5-------|
A|--5-5-5-5-5-555-7-7-7--2-2-2-2-2-----3-3-3-3-3-3-3-3-3-3-3-3-3-3-3-3-------|
E|--3-3-3-3-3-----5-5-5------------------------------------------------------|
Interlude - guitar 1
e|-----------------------------------------------------------------------------------|
B|-----------------------------------------------------------------------------------|
G|----------------------------------7777777777777777----------------5555555555555555-|
D|--22222222222222225555555555555555777777777777777777777777777777775555555555555555-|
A|--22222222222222225555555555555555555555555555555577777777777777773333333333333333-|
E|--00000000000000003333333333333333----------------5555555555555555-----------------|
Guitar 2
e|-------------------------------------------------------------------------------------------------------------------|
B|-------------------------------------------------------------------------------------------------------------------|
G|--9999999911-11-11-11-12-12-12-12-7777777711-11-11-11-12-12-12-12-14-14-14-14-14-14-14-14-16-16-16-16-19-19-19-19--|
D|--xxxxxxxx-x-x-x-x-x-x-x--x--x--x-xxxxxxxx-x-x-x-x-x-x-x-x-x-x-x-x-x-x-x-x-x-x-x-x-x-x-x-x-x-x-x-x-x-x-x-x-x-x--x--|
A|--77777777-9-9-9-9-10-10-10-10-10-55555555-9-9-9-9-10-10-10-10-12-12-12-12-12-12-12-12-14-14-14-14-17-17-17-17-17--|
E|-------------------------------------------------------------------------------------------------------------------|

e|---------------------------------------------------------------------------------------------------|
B|---------------------------------------------------------------------------------------------------|
G|--14-14-14-14-14-14-14-14-11-11-11-11-12-12-12-12-12-12-12-12-12-12-12-12-12-12-12-12-12-12-12-12--|
D|---x--x-x---x--x--x--x--x--x--x--x--x--x--x--x--x--x--x--x--x--x--x--x--x--x--x--x--x--x--x--x--x--|
A|--12-12-12-12-12-12-12-12--9--9--9--9-10-10-10-10-10-10-10-10-10-10-10-10-10-10-10-10-10-10-10-10--|
E|---------------------------------------------------------------------------------------------------|

e|---------------------------------------------------------------------------|
B|---------------------------------------------------------------------------|
G|--77777-x-x-x--------------------------------------------------------------|
D|--77777-x-x-x--------------------------------------------------------------|
A|--55555-x-x-x--------------------------------------------------------------|
E|---------------------------------------------------------------------------|

Basically it. its 99.9% rite but ive probly cocked up sumwere in there so if ya find were i hav e-mail me

| /  slide up
| \  slide down
| h  hammer-on
| p  pull-off
| ~  vibrato
| +  harmonic
| x  Mute note
===============================================================================
Comments