New Found Glory - Never Give Up Chords & Tabs

 

Never Give Up Chords & Tabs

New Found Glory Chords & Tabs

Version: 2 Type: Tab 0 ratings
1 star 2 stars 3 stars 4 stars 5 stars
comments

Never Give Up Tab

   
Band- New Found Glory
Song- Never Give Up
Album- Sticks and Stones
Tabber- Kyle Widenski

Alright, this is my first tab, so all you guitar people should like it.
This song is in standard tuning.  I tried to get the solo as best as i can, but oh well.

Intro
E----------------------------|
B----------------------------|
G-2-2-2--9-9-9--6-6-6--4-4-4-|
D-2-2-2--9-9-9--6-6-6--4-4-4-|
A-0-0-0--7-7-7--4-4-4--2-2-2-|
E----------------------------|

Verse
same thing as intro, but after the last chord, switch to 2-2-0.
[ Tab from: http://www.guitartabs.cc/tabs/n/new_found_glory/never_give_up_tab_ver_2.html ]
Pre-Chorus
E-----------------------------------------------------------------|
B-----------------------------------------------------------------|
G-6-6-6-6-6-6-6-6-2-2-2-2-2-2-2-2-9-9-9-9-9-9-9-9-4-4-4-4-4-4-4-4-|
D-6-6-6-6-6-6-6-6-2-2-2-2-2-2-2-2-9-9-9-9-9-9-9-9-4-4-4-4-4-4-4-4-|
A-4-4-4-4-4-4-4-4-0-0-0-0-0-0-0-0-7-7-7-7-7-7-7-7-2-2-2-2-2-2-2-2-|
E-----------------------------------------------------------------|

Chorus
E--------------------------------------|
B--------------------------------------|
G-2-2-2-9-9-9-4-4-4--2-2-2-9-9-9-4-4-4-|
D-2-2-2-9-9-9-4-4-4--2-2-2-9-9-9-4-4-4-|
A-0-0-0-7-7-7-2-2-2--0-0-0-7-7-7-2-2-2-|
E--------------------------------------|

Solo 1
E-----------------------------|
B-----------------------------|
G-----------------------------|
D-------2-2-2-2-------2-2-2-2-|
A-0-0-0---------2-2-2---------|
E-----------------------------|

Solo 2
E--------------------------------------|
B--------------------------------------|
G--------------------------------------|
D-2-2h4---2-2h4----2-2h4----2-0----0-2-|
A-------2--------2--------2------0-----|
E--------------------------------------|

Order

Intro
verse
pre-chorus
chorus
intro
versre
pre-chorus
chorus
solo
pre-chorus
chorus
intro

Hope that you people all like my tab, it is my first one and this is like the only one.
c ya
Comments