New Found Glory - Never Ending Story Chords & Tabs

 

Never Ending Story Chords & Tabs

New Found Glory Chords & Tabs

Version: 4 Type: Tab 0 ratings
1 star 2 stars 3 stars 4 stars 5 stars
comments

Never Ending Story Tab

This is my first tab. I think its pretty acurate. 

Intro: 
--------------------------------------------------------------------------
--------------------------------------------------------------------------
55555555\4/55555555-77-55-99-77-------------------------------------------
55555555\4/55555555-77-55-99-77-------------------------------------------
33333333\2/33333333-55-33-77-55-------------------------------------------
--------------------------------------------------------------------------

Verse: 

--------------------------------------------------------------------------
--------------------------------------------------------------------------
555555--------------------------------------------------------------------
555555-555555-333333-77-55------------------------------------------------
333333-555555-333333-77-55------------------------------------------------
-------333333-111111-55-33------------------------------------------------
P.M     

Pre-chorus:

--------------------------------------------------------------------------
--------------------------------------------------------------------------
88888888-----------8888---------------------------------------------------
88888888-6666-8888-8888-6666-88888888-------------------------------------
66666666-6666-8888-6666-6666-88888888-------------------------------------
---------4444-6666------4444-66666666-------------------------------------
Let last note ring until the word "story"

Then play

Chorus: 
[ Tab from: http://www.guitartabs.cc/tabs/n/new_found_glory/never_ending_story_tab_ver_4.html ]
--------------------------------------------------------------------------
--------------------------------------------------------------------------
5555----------------------------------------------------------------------
5555-5555-3-2-3-2-0-2-0-0-------------------------------------------------
3333-5555--------------3--------------------------------------------------
-----3333-----------------------------------------------------------------

Alternative chorus: 

--------------------------------------------------------------------------
--------------------------------------------------------------------------
5555------3-1-0-1-0-0-----------------------------------------------------
5555-5555----------3-3-1-3------------------------------------------------
3333-5555-----------------------------------------------------------------
-----3333-----------------------------------------------------------------

End:

--------|-----------------------------------------------------------------
--------|-----------------------------------------------------------------
--------|------------55---------------------------------------------------
33-77-55|-33-77-55---55---------------------------------------------------
33-77-55|-33-77-55---33---------------------------------------------------
11-55-33|-11-55-33--------------------------------------------------------
        ------------------|
This bit is played during |
the last " wo wo wohohoho"|     
        

Order:

Intro - X2
Verse - X2
Pre-chorus - X1
Chorus - X2
Verse - X3
Pre-chorus - X1
Chorus - X2
Alternative Chorus - X2
Verse - X3
Pre-chorus - X1
Chorus - X2
End - X1

Enjoy !!!!!
Comments