New Found Glory - Never Ending Story Chords & Tabs

 

Never Ending Story Chords & Tabs

New Found Glory Chords & Tabs

Version: 1 Type: Bass Tab 0 ratings
1 star 2 stars 3 stars 4 stars 5 stars
comments

Never Ending Story Bass Tab

   
NEW FOUND GLORY: NEVERENDING STORY

INTRO: 2X (0:00- 0:11)

G ---------------------------------------------------
D ---------------------------------------------------
A 3-3-3-3-3-3-2-3-3-3-3-3-3-3-5-5-5-3-3-3-7-7-7-5-5-5
E ---------------------------------------------------

VERSE #1: 2X (0:12- 0:21)

G -----------------------------------------------
D -----------------------------------------------
A 3-3-3-3-3-3------------------------------------
E ------------3-3-3-3-3-3-1-1-1-1-1-1-5-5-5-3-3-3

INTERLUDE 1: (0:22- 0:31)

G -----------------------------------------------
D -----------------------------------------------
A 6-6-6-6-6-6-6-6-6-6-6-6------------------------
E ------------------------4-4-4-4-4-4-6-6-6-6-6-6

G -----------------------------------------------
D -----------------------------------------------
A 6-6-6-6-6-6-3-3-3-3-3-3------------------------
E ------------------------4-4-4-4-4-4-6-6-6-6-6-6

CHORUS: 2X (0:32- 0:43)

G -----------------------------------------
D -----------------------------------------
A 3-3-3-3-3-3-3----------------------------
E --------------3-3-3-3-3-1-1-1-5-5-5-3-3-3

LITTLE GUITAR SOLO THING...THEN

VERSE #2: 2X (0:48- 0:57)

G -----------------------------------------------
D -----------------------------------------------
A 3-3-3-3-3-3------------------------------------
E ------------3-3-3-3-3-3-1-1-1-1-1-1-5-5-5-3-3-3

INTERLUDE 2: (0:58- 1:07)
[ Tab from: http://www.guitartabs.cc/tabs/n/new_found_glory/never_ending_story_btab.html ]
G -----------------------------------------------
D -----------------------------------------------
A 6-6-6-6-6-6-6-6-6-6-6-6------------------------
E ------------------------4-4-4-4-4-4-6-6-6-6-6-6

G -----------------------------------------------
D -----------------------------------------------
A 6-6-6-6-6-6-3-3-3-3-3-3------------------------
E ------------------------4-4-4-4-4-4-6-6-6-6-6-6

CHORUS: PLAY THIS PART 4X (1:08- 1:28)

G -----------------------------------------
D -----------------------------------------
A 3-3-3-3-3-3-3----------------------------
E --------------3-3-3-3-3-1-1-1-5-5-5-3-3-3

ANOTHER LITTLE GUITAR SOLO THING...THEN

VERSE #3: 2X (1:31- 1:41)

G -----------------------------------------------
D -----------------------------------------------
A 3-3-3-3-3-3------------------------------------
E ------------3-3-3-3-3-3-1-1-1-1-1-1-5-5-5-3-3-3

CHORUS: (1:42: 1:50)

G -----------------------------------------------
D -----------------------------------------------
A 3-3-3-3-3-3------------------------------------
E ------------3-3-3-3-3-3-1-1-1-1-1-1-5-5-5-3-3-3

G -------------------------------------------
D -------------------------------------------
A 3-3-3-3-3-3--------------------------------
E ------------3-3-3-3-3-3-1-1-1-1-1-1-5-5-5-3 PAUSE...THEN

CHORUS: 4 MORE TIMES (1:51-2:12)

OUTRO PART: (2:13- 2:17)

G -----------
D -----------
A 3-3-------3
E ----3-3-1--

TABBED BY: CHRIS HOSLER 
QUESTIONS OR COMMENTS? EMAIL ME: IMMOLATION_MAN_2K3@YAHOO.COM
HOPE YA LIKE IT!!! NFG KICKS ASS!!!
Comments