New Found Glory - My Heart Will Go On Chords & Tabs

 

My Heart Will Go On Chords & Tabs

New Found Glory Chords & Tabs

Version: 8 Type: Tab 0 ratings
1 star 2 stars 3 stars 4 stars 5 stars
comments

My Heart Will Go On Tab

Artist:  New Found Glory
Song:  My Heart Will Go On
Album:  From the Screen to Your Stereo (if you don't have it, go buy it)
Date: 10.12.03

tabbed by Tomi Bezjak (tomi.bezjak@email.si)

this is my favorite song of nfg's and i sat down last night and forced 
myself to figure it out, so here it is.  just listen to the song to figure 
out the timing if you are unsure.

Intro
e|---------------------------------------------------------|
B|---------------------------------------------------------|
G|---------------------------------------------------------|
D|-------------------------------9---6-----------------2---|
A|---7--9--9h11---11--11p9--7--9--------9---7----------2---|
E|----------------------------------------------9--7-/-0---|

e|---------------------------------------------------------|
B|---------------------------------------------------------|
G|-----------------------------------------6--6---4--------|
D|-------------------------------9---6--9------------------|
A|---7--9--9h11---11--11p9--7--9---------------------------|
E|---------------------------------------------------------|

Verse (all palm muted) x2
e|---------------------------------------------------------------------|
B|---------------------------------------------------------------------|
G|---9-9-9-9-9-9-9-9------------------------------------9-9-9----------|
D|---9-9-9-9-9-9-9-9--9-9-9-9-9-9-9-9--7-7-7-7-7-7-7-7--9-9-9--9-9-9---|
A|---7-7-7-7-7-7-7-7--9-9-9-9-9-9-9-9--7-7-7-7-7-7-7-7--7-7-7--9-9-9---|
E|--------------------7-7-7-7-7-7-7-7--5-5-5-5-5-5-5-5---------7-7-7---|

e|-------------------------------------------------------------------|
B|-------------------------------------------------------------------|
G|---9-9-9-9-9-9-9-9-------------------------------------------------|
D|---9-9-9-9-9-9-9-9--9-9-9-9-9-9-9-9--7-7-7-7-7-7-7-7-7-7-7-7-7-7---|
A|---7-7-7-7-7-7-7-7--9-9-9-9-9-9-9-9--7-7-7-7-7-7-7-7-7-7-7-7-7-7---|
E|--------------------7-7-7-7-7-7-7-7--5-5-5-5-5-5-5-5-5-5-5-5-5-5---|

Chorus x2
e|--------------------------------------------------------------------|
B|--------------------------------------------------------------------|
G|---9-9-9-9------------------------------9-9-9-9---------------------|
D|---9-9-9-9--9-9-9-9--7-7-7-7--9-9-9-9---9-9-9-9--9-9-9-9--7-7-7-7---|
A|---7-7-7-7--9-9-9-9--7-7-7-7--9-9-9-9---7-7-7-7--9-9-9-9--7-7-7-7---|
E|------------7-7-7-7--5-5-5-5--7-7-7-7------------7-7-7-7--5-5-5-5---|

e|--------------------|
B|--------------------|
G|----------------9---|
D|---11-11---9-9--9---|
A|---11-11---9-9--7---|
E|----9--9---7-7------|
[ Tab from: http://www.guitartabs.cc/tabs/n/new_found_glory/my_heart_will_go_on_tab_ver_8.html ]
Verse (palm-muted) x2
e|---------------------------------------------------------------------|
B|---------------------------------------------------------------------|
G|---9-9-9-9-9-9-9-9------------------------------------9-9-9----------|
D|---9-9-9-9-9-9-9-9--9-9-9-9-9-9-9-9--7-7-7-7-7-7-7-7--9-9-9--9-9-9---|
A|---7-7-7-7-7-7-7-7--9-9-9-9-9-9-9-9--7-7-7-7-7-7-7-7--7-7-7--9-9-9---|
E|--------------------7-7-7-7-7-7-7-7--5-5-5-5-5-5-5-5---------7-7-7---|

e|-------------------------------------------------------------------|
B|-------------------------------------------------------------------|
G|---9-9-9-9-9-9-9-9-------------------------------------------------|
D|---9-9-9-9-9-9-9-9--9-9-9-9-9-9-9-9--7-7-7-7-7-7-7-7-7-7-7-7-7-7---|
A|---7-7-7-7-7-7-7-7--9-9-9-9-9-9-9-9--7-7-7-7-7-7-7-7-7-7-7-7-7-7---|
E|--------------------7-7-7-7-7-7-7-7--5-5-5-5-5-5-5-5-5-5-5-5-5-5---|

Chorus x2
e|--------------------------------------------------------------------|
B|--------------------------------------------------------------------|
G|---9-9-9-9------------------------------9-9-9-9---------------------|
D|---9-9-9-9--9-9-9-9--7-7-7-7--9-9-9-9---9-9-9-9--9-9-9-9--7-7-7-7---|
A|---7-7-7-7--9-9-9-9--7-7-7-7--9-9-9-9---7-7-7-7--9-9-9-9--7-7-7-7---|
E|------------7-7-7-7--5-5-5-5--7-7-7-7------------7-7-7-7--5-5-5-5---|

e|--------------------|
B|--------------------|
G|----------------9---|
D|---11-11---9-9--9---|
A|---11-11---9-9--7---|
E|----9--9---7-7------|

Bridge (palm-muted)
e|-------------------------------------|
B|-------------------------------------|
G|---9-9-9-9-9-9-9-9-9-9-9-9-9-9-9-9---|
D|---9-9-9-9-9-9-9-9-9-9-9-9-9-9-9-9---|
A|---7-7-7-7-7-7-7-7-7-7-7-7-7-7-7-7---|
E|-------------------------------------|

Solo (pretty fast) x2
e|---------------------------------------------------------|
B|---------------------------------------------------------|
G|---------------------------------------------------------|
D|-------------------------------9---6-----------------2---|
A|---7--9--9h11---11--11p9--7--9--------9--7-----------2---|
E|----------------------------------------------9--7-/-0---|

e|---------------------------------------------------------|
B|---------------------------------------------------------|
G|-----------------------------------------6--6---4--------|
D|-------------------------------9---6--9------------------|
A|---7--9--9h11---11--11p9--7--9---------------------------|
E|---------------------------------------------------------|

Chorus x2
e|--------------------------------------------------------------------|
B|--------------------------------------------------------------------|
G|---9-9-9-9------------------------------9-9-9-9---------------------|
D|---9-9-9-9--9-9-9-9--7-7-7-7--9-9-9-9---9-9-9-9--9-9-9-9--7-7-7-7---|
A|---7-7-7-7--9-9-9-9--7-7-7-7--9-9-9-9---7-7-7-7--9-9-9-9--7-7-7-7---|
E|------------7-7-7-7--5-5-5-5--7-7-7-7------------7-7-7-7--5-5-5-5---|

e|--------------------|
B|--------------------|
G|----------------9---|
D|---11-11---9-9--9---|
A|---11-11---9-9--7---|
E|----9--9---7-7------|

Outro (slow)
e|---------------------------------------------------------|
B|---------------------------------------------------------|
G|---------------------------------------------------------|
D|-------------------------------9---6-----------------2---|
A|---7--9--9h11---11--11p9--7--9---------9--7-----------2--|
E|----------------------------------------------9--7-/-0---|
Comments