New Found Glory - My Heart Will Go On Chords & Tabs

 

My Heart Will Go On Chords & Tabs

New Found Glory Chords & Tabs

Version: 7 Type: Tab 0 ratings
1 star 2 stars 3 stars 4 stars 5 stars
comments

My Heart Will Go On Tab

Artist: A New Found Glory
Title: My Heart Will Go On
Album: From The Screen To Your Stereo
Transcribed by: Collin Middleton
Email: stickboy20@hotmail.com

I love this cover.  Punk covers kick ass and I think this is one of 
the best ones. This song isn't too hard and I'm pretty sure this tab is 
correct.  Good luck.

M = Palm Mute

Riff order (all with overdrive):
Intro 
Riff A x 2
Bridge
Chorus x 2
Riff B x 2
Bridge
Chorus x 2
Intro x 2 (fast)
Bridge
Chorus x 2
Intro - part 1 only



----------------------------------|---------------------------9---------------
------9-9h10------9-12-9----------|-----9-9h10------9-12-9-12---12-9----------
-9-11--------11-9--------11-9-----|9-11--------11-9---------------------------
------------------------------11-9|-------------------------------------------
----------------------------------|-------------------------------------------
----------------------------------|-------------------------------------------
 
Intro                                                                        

---------------------------------------|--------------------------------------
---------------------------------------|--------------------------------------
---------------------------------------|--------------------------------------
-999--999----------------------999-----|--999--999----------------------------
-777--777--999--999--777--777--777--999|--777--777--999--999--777-777-777-777-
-----------777--777--555--555-------777|------------777--777--555-555-555-555-
 MM   MM   MM   MM   MM   MM   MM   MM    MM   MM   MM   MM   MM  MM  MM  MM
Riff A Part 1                             Part 2                             
[ Tab from: http://www.guitartabs.cc/tabs/n/new_found_glory/my_heart_will_go_on_tab_ver_7.html ]
------------------------------------------------------------------------------
------------------------------------------------------------------------------
------------------------------------------------------------------------------
------------------------------------------------------------------------------
-6-4--------------------------------------------------------------------------
-4-2--------------------------------------------------------------------------
 M M
Bridge                                                                       

--------------------------|---------------------------------------------------
--------------------------|---------------------------------------------------
--------------------------|---------------------------------------------------
------------4-4-------6-4-|------------4-4-4-4--------------------------------
-2-2-2-2-2--2-2--5-5--4-2-|-2-2-2-2-2--2-2-2-2--5-5--6-6--4-4-----------------
-0-0-0-0-0-------3-3------|-0-0-0-0-0-----------3-3--4-4--2-2-----------------
                                                     M M  M M
Chorus                                              

-------------------------------------|----------------------------------------
-------------------------------------|----------------------------------------
-------------------------------------|----------------------------------------
-9999999-------------------9999------|-99999999-------------------------------
-7777777-99999999-55555555-7777-9999-|-77777777-99999999-777-777-777-777------
---------77777777-77777777------7777-|----------77777777-555-555-555-555------
                                                         MM  MM  MM  MM
Riff B  Part 1                         Part 2
Comments