New Found Glory - My Heart Will Go On Chords & Tabs

 

My Heart Will Go On Chords & Tabs

New Found Glory Chords & Tabs

Version: 4 Type: Tab 0 ratings
1 star 2 stars 3 stars 4 stars 5 stars
comments

My Heart Will Go On Tab

   
my_heart_will_go_on.tabBand:  New found Glory
Song:  My Heart Will Go On
Album: From your screen to your stereo
Tabbed by: Luis Patricio
E-mail: luis_e_p_c@yahoo.com

Riff 1
E|-----------------------------|
B|-----------------------------|
G|9____________________________|
D|9__Let_ring__________________|
A|7____________________________|
E|7____________________________|

Riff 2
E|-------------------------|
B|-------------------------|
G|-------------------------|
D|-4h6---6-4-4s9--6-4------|
A|7---------7----------7---|
E|----------------------9p7|

Riff 3
E|----------------------------|
B|----------------------------|
G|----------------------------|
D|-4h6---6-4--4s9--7--9s11---9|
A|7---------7-----------------|
E|----------------------------|

Riff 4 (Verse)
E|-----------------------------------------|
B|-----------------------------------------|
G|---9----9--------------------------9-----|
D|x-x9----9-----9----9-----7----7-x-x9----9|
A|x-x7-x-x7--x-x9-x-x9--x-x7-x-x7-x-x7-x-x9|
E|-----------x-x7-x-x7--x-x5-x-x5------x-x7|

Then it switches to this the after you do riff 4 once
[ Tab from: http://www.guitartabs.cc/tabs/n/new_found_glory/my_heart_will_go_on_tab_ver_4.html ]
E|-----------------------------------------|
B|-----------------------------------------|
G|---9----9--------------------------------|
D|x-x9----9-----9----9-----7----7----7----7|
A|x-x7-x-x7--x-x9-x-x9--x-x7-x-x7-x-x7-x-x7|
E|-----------x-x7-x-x7--x-x5-x-x5-x-x5-x-x5|

Riff 5 (Chorus)
E|-------------------------------------------|
B|-------------------------------------------|
G|--9-----------6---4---9--------------------|     
D|--7---9---7---6---4---7---9---7---x-x--x-x-|
A|--7---9---7---4---2---7---9---7---x-x--x-x-|
E|------7---5---------------7---5---x-x--x-x-|

(2 Times)

(solo)

E|---------------------------------------------------------|
B|---------------------------------------------------------|
G|---------------------------------------------------------|
D|-4-6---6-4---9--6-4--------4-6---6-4---9--7--9-11-11---9-|
A|7---------7----------7----7---------7--------------------|
E|----------------------9--7-------------------------------|


I saw The Tabs on the net, tried playing them and the Chorus
sounded wrong so i decided to tab it out myself. I also think
thats how the solo goes. It may be wrong butit sound ok.



Comments