New Found Glory - My Heart Will Go On Chords & Tabs

 

My Heart Will Go On Chords & Tabs

New Found Glory Chords & Tabs

Version: 3 Type: Tab 0 ratings
1 star 2 stars 3 stars 4 stars 5 stars
comments

My Heart Will Go On Tab

   
Band:  New found Glory
Song:  My Heart Will Go On
Album: From your screen to your stereo
Tabbed by:chris vaughan
E-mail:HILARY18@BTINTERNET.COM

Another good nu-rage punk outfit getting international recognition from there 
second album "A NEW FOUND GLORY" heres a song from there debut album
and where would the so-cal punk scene be without the cover version
of a shit pop song such as blink 182s version of christina agulariaararaargh
(or whatever shes called) "GENIE IN A BOTTLE" and less than jake doing
t'pau's "CHINA IN YOUR HANDS" and now a cover of that scary old canadian
mugwump Celine dion. watching leonardo dicrapio drown to this version would 
had made titanic more watchable.

EQUIPMENT: For this i was using  my trusty fender strat copy with 2 double pickups
set to standard tuning (E-B-G-D-A-e) all acompanied with a dod g350 fx pedal
(check out www.dod.com) leading to a standard peavey speaker+pa system

INTRO(gtr1) (heavy dist)+(a little feedback nr end)
E|-----------------------------|
B|-----------------------------|
G|9_____________________|
D|9__Let_ring____________|
A|7_____________________ |
E|7______________________|
[ Tab from: http://www.guitartabs.cc/tabs/n/new_found_glory/my_heart_will_go_on_tab_ver_3.html ]
INTRO(gtr2)
E|-------------------------|
B|-------------------------|
G|-------------------------|
D|-4h6---6-4-4s9--6-4---|
A|7---------7----------7---|
E|----------------------9p7|

INTRO(gtr2)cont.
E|--------------------------------|
B|--------------------------------|
G|--------------------------------|
D|-4h6---6-4--4s9--7--9s11---9|
A|7---------7---------------------|
E|---------------------------------|

VERSE
E|-------------------------------------|
B|-------------------------------------|
G|9-9-------------------9-------------|
D|9-9----9-9----7-7----9-----9------|
A|7-7----9-9----7-7----7-----9------|
E|--------7-7----5-5----------7------|



E|----------------------------------|
B|----------------------------------|
G|---9-9---------------------------|
D|---9-9-----9-9-----7-7-7-7-----|
A|---7-7-----9-9-----7-7-7-7-----|
E|------------7-7-----5-5-5-5-----|

CHORUS
E|-----------------------------------|
B|-----------------------------------|
G|-----------------------------------|
D|2--2-2--9------7-7--11--9---9-9|
A|2--2-2--9------7-7--11--9---9-9|
E|0--0-0--7------5-5--9---7---7-7|


Theres most of the track there is a solo in there too but i carnt be arsed working it out just now
Comments