New Found Glory - My Friends Over You Chords & Tabs

 

My Friends Over You Chords & Tabs

New Found Glory Chords & Tabs

Version: 8 Type: Tab 0 ratings
1 star 2 stars 3 stars 4 stars 5 stars
comments

My Friends Over You Tab

New Found Glory - My Friends Over You - Tabbed by Adam Bourne
Lead and Rhythm Guitar Version
Standard EADGBe tuning


Lead
e ---------------------------------------------------------------
B -------7---------------7----------------7---------------7------
G -9-7-9---9-7-7-9-7-7-9---9-7-7----9-7-9---9-7-7-9-7-7-9---9-7-7
D ---------------------------------------------------------------
A ---------------------------------------------------------------
E ---------------------------------------------------------------

Rhythm
e ---------------------------------------------------------------
B ---------------------------------------------------------------
G ----7----7----x----x----7--------------------------------------
D ----7----7----x----x----7-------------5----5----x----x----5----
A ----5----5----x----x----5-------------5----5----x----x----5----
E --------------------------------------3----3----x----x----3----

Play both of these twice

Both then play the Rhythm part throughout the verse until the interlude

Rhythm                    Lead
e -----------------------  e ------------------------
B -----------------------  B ------------------------
G -----------------------  G -9-9-9-9---------------- 
D -2-2-2-2-5-5-5-5-------  D -9-9-9-9-5-5-5-5--------
A -2-2-2-2-5-5-5-5-------  A -7-7-7-7-5-5-5-5--------
E -0-0-0-0-3-3-3-3-------  E ---------3-3-3-3--------

Then play again..
e ---------------------------------------------------------------
B ---------------------------------------------------------------
G ----7----7----x----x----7--------------------------------------
D ----7----7----x----x----7-------------5----5----x----x----5----
A ----5----5----x----x----5-------------5----5----x----x----5----
E --------------------------------------3----3----x----x----3----

Then the second time round, the Rhythm continues with the above
while the lead plays the riff over the top (listen to the song and you'll get it)

e -----------------------------------
B -------7---------------7-----------
G -9-7-9---9-7-7-9-7-7-9---9-7-7-----
D -----------------------------------
A -----------------------------------
E -----------------------------------

Then again it is

Rhythm                    Lead
e -----------------------  e ------------------------
B -----------------------  B ------------------------
G -----------------------  G -9-9-9-9---------------- 
D -2-2-2-2-5-5-5-5-------  D -9-9-9-9-5-5-5-5--------
A -2-2-2-2-5-5-5-5-------  A -7-7-7-7-5-5-5-5--------
E -0-0-0-0-3-3-3-3-------  E ---------3-3-3-3-------- x 3

then both play as Jordan sings "Lead you on..."

e ---------------------
B ---------------------
G ---------------------
D ---7-7-7-7-7-7-7-7---
A ---7-7-7-7-7-7-7-7---
E ---5-5-5-5-5-5-5-5---

Then the chorus goes

Lead
e ----------------------------------------------------------------
B ----------------------------------------------------------------
G -7-7-7-7-7-7-7-7-7-------------7-7-7-7-7-7-7-7-7----------------
D -7-7-7-7-7-7-7-7-7-5-5-5-5-5-5-7-7-7-7-7-7-7-7-7-5-5-5-5-5-5----
A -5-5-5-5-5-5-5-5-5-5-5-5-5-5-5-5-5-5-5-5-5-5-5-5-5-5-5-5-5-5----
E -------------------3-3-3-5-3-3-------------------3-3-3-3-3-3----

Rhythm
e ----------------------------------------------------------------
B ----------------------------------------------------------------
G -7-7-7-7-7-7-7-7-7-------------7-7-7-7-7-7-7-7-7----------------
D -7-7-7-7-7-7-7-7-7-5-5-5-5-5-5-7-7-7-7-7-7-7-7-7-5-5-5-5-5-5----
A -5-5-5-5-5-5-5-5-5-5-5-5-5-5-5-5-5-5-5-5-5-5-5-5-5-5-5-5-5-5----
E -------------------3-3-3-5-3-3-------------------3-3-3-3-3-3----
(then scrape the plectrum along dead strings to create the screech)

Lead
e ----------------------------------------------------------
B ----------------------------------------------------------
G -4-4-4-4-6-6-7---------6-6-7-4-4-4-4-6-6-7----------------
D -4-4-4-4-6-6-7-5-5-5-5-6-6-7-4-4-4-4-6-6-7-5-5-5-5-7------
A -2-2-2-2-4-4-5-5-5-5-5-4-4-5-2-2-2-2-4-4-5-5-5-5-5-7------ Let the last note ring
E ---------------3-3-3-3---------------------3-3-3-3-5------

Rhythm
e ----------------------------------------------------------
B ----------------------------------------------------------
G -4-4-4-4-4-4-4---------------4-4-4-4-4-4-4----------------
D -4-4-4-4-4-4-4-5-5-5-5-5-5-5-4-4-4-4-4-4-4-5-5-5-5-7------
A -2-2-2-2-2-2-2-5-5-5-5-5-5-5-2-2-2-2-2-2-2-5-5-5-5-7------
E ---------------3-3-3-3-3-3-3---------------3-3-3-3-5------

Then repeat that sequence again until the end of the second chorus.

Then when it comes to the bridge play the Lead plays 
[ Tab from: http://www.guitartabs.cc/tabs/n/new_found_glory/my_friends_over_you_tab_ver_8.html ]
e -----------------------------  
B -----------------------------
G -----------------------------
D -0-----0---------------------
A -------------2-----2---------
E ---2-3---2-3---2-3---5-3-----  Play x 4

On the second time the Rhythm comes in with

e -----------------------------
B -----------------------------
G -7-----7-----4-----4---------
D -7-4-5-7-4-5-4-4-5-4-7-5-----
A -5-4-5-5-4-5-2-4-5-2-7-5-----
E ---2-3---2-3---2-3---5-3-----  Play x 3

Then strum dead strings and generally pick them to create the noise while Jordan sings, 
then play

Lead
e ----------------------------------------------------------------
B ----------------------------------------------------------------
G -7-7-7-7-7-7-7-7-7-------------7-7-7-7-7-7-7-7-7----------------
D -7-7-7-7-7-7-7-7-7-5-5-5-5-5-5-7-7-7-7-7-7-7-7-7-5-5-5-5-5-5----
A -5-5-5-5-5-5-5-5-5-5-5-5-5-5-5-5-5-5-5-5-5-5-5-5-5-5-5-5-5-5----
E -------------------3-3-3-5-3-3-------------------3-3-3-3-3-3----

Rhythm
e ----------------------------------------------------------------
B ----------------------------------------------------------------
G -7-7-7-7-7-7-7-7-7-------------7-7-7-7-7-7-7-7-7----------------
D -7-7-7-7-7-7-7-7-7-5-5-5-5-5-5-7-7-7-7-7-7-7-7-7-5-5-5-5-5-5----
A -5-5-5-5-5-5-5-5-5-5-5-5-5-5-5-5-5-5-5-5-5-5-5-5-5-5-5-5-5-5----
E -------------------3-3-3-5-3-3-------------------3-3-3-3-3-3----
 (then scrape the plectrum along dead strings to create the screech)

Lead
e ----------------------------------------------------------
B ----------------------------------------------------------
G -4-4-4-4-6-6-7---------6-6-7-4-4-4-4-6-6-7----------------
D -4-4-4-4-6-6-7-5-5-5-5-6-6-7-4-4-4-4-6-6-7-5-5-5-5-7------
A -2-2-2-2-4-4-5-5-5-5-5-4-4-5-2-2-2-2-4-4-5-5-5-5-5-7------ Let the last note ring
E ---------------3-3-3-3---------------------3-3-3-3-5------

Rhythm
e ----------------------------------------------------------
B ----------------------------------------------------------
G -4-4-4-4-4-4-4---------------4-4-4-4-4-4-4----------------
D -4-4-4-4-4-4-4-5-5-5-5-5-5-5-4-4-4-4-4-4-4-5-5-5-5-7------
A -2-2-2-2-2-2-2-5-5-5-5-5-5-5-2-2-2-2-2-2-2-5-5-5-5-7------ Let the last note ring
E ---------------3-3-3-3-3-3-3---------------3-3-3-3-5------

Then the lead goes back to

Lead
e ---------------------------------------------------------------
B -------7---------------7----------------7---------------7------
G -9-7-9---9-7-7-9-7-7-9---9-7-7----9-7-9---9-7-7-9-7-7-9---9-7-7
D ---------------------------------------------------------------
A ---------------------------------------------------------------
E ---------------------------------------------------------------

Whilst the Rhythm plays

Rhythm
e ----------------------------------------------------------------
B ----------------------------------------------------------------
G -7-7-7-7-7-7-7-7-7-------------7-7-7-7-7-7-7-7-7----------------
D -7-7-7-7-7-7-7-7-7-5-5-5-5-5-5-7-7-7-7-7-7-7-7-7-5-5-5-5-5-5----
A -5-5-5-5-5-5-5-5-5-5-5-5-5-5-5-5-5-5-5-5-5-5-5-5-5-5-5-5-5-5----
E -------------------3-3-3-5-3-3-------------------3-3-3-3-3-3----
 (then scrape the plectrum along dead strings to create the screech)


Both then play 

Lead
e ----------------------------------------------------------
B ----------------------------------------------------------
G -4-4-4-4-6-6-7---------6-6-7-4-4-4-4-6-6-7----------------
D -4-4-4-4-6-6-7-5-5-5-5-6-6-7-4-4-4-4-6-6-7-5-5-5-5-7------
A -2-2-2-2-4-4-5-5-5-5-5-4-4-5-2-2-2-2-4-4-5-5-5-5-5-7------ Let the last note ring
E ---------------3-3-3-3---------------------3-3-3-3-5------

Rhythm
e ----------------------------------------------------------
B ----------------------------------------------------------
G -4-4-4-4-4-4-4---------------4-4-4-4-4-4-4----------------
D -4-4-4-4-4-4-4-5-5-5-5-5-5-5-4-4-4-4-4-4-4-5-5-5-5-7------
A -2-2-2-2-2-2-2-5-5-5-5-5-5-5-2-2-2-2-2-2-2-5-5-5-5-7------ Let the last note ring
E ---------------3-3-3-3-3-3-3---------------3-3-3-3-5------

Then to end the song

Lead
e ---------------------------------------------------------------
B -------7---------------7----------------7---------------7------
G -9-7-9---9-7-7-9-7-7-9---9-7-7----9-7-9---9-7-7-9-7-7-9---9-7-7
D ---------------------------------------------------------------
A ---------------------------------------------------------------
E ---------------------------------------------------------------

Rhythm
e ---------------------------------------------------------------
B ---------------------------------------------------------------
G ----7----7----x----x----7--------------------------------------
D ----7----7----x----x----7-------------5----5----x----x----5----
A ----5----5----x----x----5-------------5----5----x----x----5----
E --------------------------------------3----3----x----x----3----

I think this is exactly right. I play in a band called No Reply and we play it and it 
sounds perfect.
Comments