New Found Glory - My Friends Over You Chords & Tabs

 

My Friends Over You Chords & Tabs

New Found Glory Chords & Tabs

Version: 5 Type: Tab 0 ratings
1 star 2 stars 3 stars 4 stars 5 stars
comments

My Friends Over You Tab

sorry about the 1st one, there were sum mistakes but now i think its right.

legend:
*= palm mute
p= pull of
L.R.=let the note ring
X=dead note



rythm:intro
e---------------------------------------------------------
b---------------------------------------------------------
g---------------------------------------------------------
d---7-7-7-7-7-----------------7-7-7-7-7--------------(5)L.
a---5-5-5-5-5----5-5-5-5-5----5-5-5-5-5----5-5-5-5---(5)R.
e----------------3-3-3-3-3-----------------3-3-3-3---(3)--
        * *          * *          * *          * *
                     lead:intro
                     
e-----------------------------------||--------------------
b-----------------------------------||--------------------
g---9p7-7-11-9p7-7-9p7-7-11-9p7-7-7-||--x3----------------
d-----------------------------------||--------------------
a-----------------------------------||--------------------
e-----------------------------------||--------------------
   
e-----------------||--------------------------------------
b-----------------||--------------------------------------
g---9p7-7----(7)--||-x1-----------------------------------
d------------(7)L.||--------------------------------------
a------------(5)R.||--------------------------------------
e-----------------||--------------------------------------
[ Tab from: http://www.guitartabs.cc/tabs/n/new_found_glory/my_friends_over_you_tab_ver_5.html ]
                    rythm:verse
       
e---------------------------------------------------------
b---------------------------------------------------------
g----------------------------7-7-7-7-7--------------------
d---7-7-7-7-7----------------5-5-5-5-5--------------------
a---5-5-5-5-5----5-5-5-5-5--------------2-2-2222-5-5-5555-
e----------------3-3-3-3-3--------------0-0-0000-3-3-3333-
        * *          * *         * *
e---------------------------------------------------------
b---------------------------------------------------------
g----------------------------7-7-7-7-7--------------------
d---7-7-7-7-7----------------5-5-5-5-5--------------------
a---5-5-5-5-5----5-5-5-5-5--------------2-2-2222-5-5-5555-
e----------------3-3-3-3-3--------------0-0-0000-3-3-3333-
        * *          * *         * *

e-----------------------------------------------||--------
b-----------------------------------------------||--------
g-----------------------------------------------||--------
d----------------------------------------7X77X77||--------
a---2-2-2222-5-5-5555-2-2-2222-5-5-5555--7X77X77||--------
e---0-0-0000-3-3-3333-0-0-0000-3-3-3333--5X55X55||--------

                           chorus

e------------------||-------------------------------||----
b------------------||-------------------------------||----
g--(7)-------------||------(4)---------------(4)----||----
d--(7)-x16--(5)----||-x2---(4)-x16--(5)------(4)-x16||-x1-
a--(5)------(5)-x16||------(2)------(5)-x16--(2)----||----
e-----------(3)----||---------------(3)-------------||----

                        end chorus riff

e---------------------||----------------------------------
b---------------------||----------------------------------
g---------------------||----------------------------------
d----------------(2)--||----------------------------------
a------------55--(2)L.||----------------------------------
e---55-33-22-----(0)R.||----------------------------------

intro
verse
chorus 
                        interlude

e---------------------------||----------------------------
b---------------------------||----------------------------
g---------------------------||----------------------------
d---------------------------||-x4-------------------------
a---5----5----2----2--------||----------------------------
e-----23---23---23---53-----||----------------------------

chorus x2
any questions or corrections email me at ekudal@msn.com
Comments