New Found Glory - My Friends Over You Chords & Tabs

 

My Friends Over You Chords & Tabs

New Found Glory Chords & Tabs

Version: 4 Type: Tab 0 ratings
1 star 2 stars 3 stars 4 stars 5 stars
comments

My Friends Over You Tab

New Found Glory :: My Friends Over You


Tabbed By Brandon Standefer


(Standard Tuning)

-----------------------------------------------------------------------------------------------------------------------------------------------


Intro ::
This Is Repeated 4 Times


Guitar One ::


E|---------------------------------------------------------------
B|---------------------------------------------------------------
G|---9--7--9--11--9--7--7--9--7--7--9--11--9--7--7--7------------
D|---------------------------------------------------------------
A|---------------------------------------------------------------
E|---------------------------------------------------------------


Guitar Two ::


E|---------------------------------------------------------------------
B|---------------------------------------------------------------------
G|--7-7-7----7--x--7---------------------------------------------------
D|--7-7-7----7--x--7----5--5----5--x--5--------------------------------
A|--5-5-5----5--x--5----5--5----5--x--5--------------------------------
E|--------------------------3--3----3--x--3----------------------------


-----------------------------------------------------------------------------------------------------------------------------------------------


Pre-Chorus ::

[ Tab from: http://www.guitartabs.cc/tabs/n/new_found_glory/my_friends_over_you_tab_ver_4.html ]
This is Repeated Twice ::
                                          
E|-----------------------------------------------------------------------------------------------------------------
B|-----------------------------------------------------------------------------------------------------------------
G|--7-7-7----7--x--7--------------------------------7--7----7--x--7------------------------------------------------
D|--7-7-7----7--x--7----0-4-5---5--5----5--x--5-----7--7----7--x--7----2--2--2--2----5--5--5-----------------------
A|--5-5-5----5--x--5------------5--5----5--x--5-----5--5----5--x--5----2--2--2--2----5--5--5-----------------------
E|------------------------------3--3----3--x--3------------------------0--0--0--0----3--3--3-----------------------



-----------------------------------------------------------------------------------------------------------------------------------------------


Chorus ::



E|--------------------------------------------------------------------------
B|--------------------------------------------------------------------------
G|--7-7-7-7-7-7-7-7-7-7-7-7-------------------------------------------------
D|--7-7-7-7-7-7-7-7-7-7-7-7-----5-5-5-5-5-5-5-5-5-5-5-5---------------------
A|--5-5-5-5-5-5-5-5-5-5-5-5-----5-5-5-5-5-5-5-5-5-5-5-5---------------------
E|------------------------------3-3-3-3-3-3-3-3-3-3-3-3---------------------


-----------------------------------------------------------------------------------------------------------------------------------------------


Ending ::


Guitar One ::


E|--------------------------------------------------------------
B|--------------------------------------------------------------
G|---9--7--9--11--9--7--7--9--7--7--9--11--9--7--7--7-----------
D|--------------------------------------------------------------
A|--------------------------------------------------------------
E|--------------------------------------------------------------


Guitar Two ::

E|---------------------------------------------------------------------
B|---------------------------------------------------------------------
G|--7-7-7----7--x--7---------------------------------------------------
D|--7-7-7----7--x--7----5--5----5--x--5--------------------------------
A|--5-5-5----5--x--5----5--5----5--x--5--------------------------------
E|----------------------3--3----3--x--3--------------------------------

-----------------------------------------------------------------------------------------------------------------------------------------------
Comments