New Found Glory - My Friends Over You Chords & Tabs

 

My Friends Over You Chords & Tabs

New Found Glory Chords & Tabs

Version: 13 Type: Tab 0 ratings
1 star 2 stars 3 stars 4 stars 5 stars
comments

My Friends Over You Tab

Artist: new found glory		
Title: my friends over you
Transcribe by: francis 'flip' jimenez
email: francisflip@yahoo.com

Tuning: standard
Legend:
* - palm mute
... - continue
/ - slide up

i'm 100% sure about this! play it nicely with one foot stumpping
on your floor & head banging....

intro:guitar1
e|-------------------------------------------------|
B|---------0-0-------------------------------------|
G|--9-9--9-9-9----------0-0------------------------|
D|--9-9--9-9-9---7-7--7-7-7------------------------|
A|--7-7--7-7-7---7-7--7-7-7------------------------|
E|---------------5-5--5-5-5------------------------|
         * * *        * * *

intro: guitar2 (lead fill riff)
e|-------------------------------------------------|
B|----------9---------------9----------------------|
G|--11-9-11---11-99-11-9-11---11-9-9999------------|
D|-------------------------------------------------|
A|-------------------------------------------------|
E|-------------------------------------------------|
^
e|-lead riff...-|
B|-this>-9------|
G|-can-------13-|
D|-be>------->^-|
A|--------------|
E|--------------|


verse:(2x)
e|--------------------------------------------------------------|
B|---------0-0------------------------0-------------------------|
G|--9-9--9-9-9----------0-0--9-9--9-9-9---11-11-11-11-----------|
D|--9-9--9-9-9---7-7--7-7-7--9-9--9-9-9---11-11-11-11-7-7-7-7---|
A|--7-7--7-7-7---7-7--7-7-7--7-7--7-7-7---9--9--9--9--7-7-7-7---|
E|---------------5-5--5-5-5---------------------------5-5-5-5---|
         * * *        * * *       * *        *  *  *    * * *
[ Tab from: http://www.guitartabs.cc/tabs/n/new_found_glory/my_friends_over_you_tab_ver_13.html ]
pre-cHoRuS: (2x) just maybe....
e|--------------------------|
B|--------------------------|
G|--11-11-11-11-------------|
D|--11-11-11-11--7-7-7-7----|
A|--9--9--9--9---7-7-7-7----|
E|---------------5-5-5-5----|
     

to lead you on....
e|---------------------|
B|---------------------|
G|-11-11-11-9-9-9-9----|
D|-11-11-11--9-9-9-9---|
A|--9--9--9--7-7-7-7---|
E|---------------------|


ChoRus:
e|-------------------------------------------------------------|
B|-------------------------------------------------------------|
G|--9-9-9-9-9--------------------------------------------------|
D|--9-9-9-9-9-----7-7-7-7-7---(2x)--/11-11-11----7-7-7---------|
A|--7-7-7-7-7...--7-7-7-7-7--------/-11-11-11----7-7-7---(2x)--|
E|----------------5-5-5-5-5...----/--9--9--9...--5-5-5...------|

> you were everything i wanted... 
> but i just can't finish what i started...
>when there's ---- nothings left here on my back...
>you'd have damaged long enough...
>though you swear that you are through...
>my stupid my friends over you...

bridge:

e|-------------------------------|
B|-------------------------------|
G|-------------------------------|
D|-------------------------------|
A|---7--------7------------------|
E|------5--7----7-5-9-5-7-9-7-5--|

song structure:
intro
verse w/ fill
pre-chorus
>to lead you on...part
chorus
intro
verse w/ fill
pre-chorus
>to lead you on... part
chorus
bridge
pre-chorus
chorus(2x)
intro

hi this is my first tab on nfg i hope you'll like it! i watch their video and i
thought i could make a tab , tananat tanannn ... this is it! visit my other tabs
from kamikazee. type kamikazee from the search menu and find it. it's in misc.
group.then walla! kaez thank you,it's better to be like this... email me if has
default or you can send me pics of skaters/pinoy tabs...
End>
Comments