New Found Glory - My Friends Over You Chords & Tabs

 

My Friends Over You Chords & Tabs

New Found Glory Chords & Tabs

Version: 11 Type: Tab 0 ratings
1 star 2 stars 3 stars 4 stars 5 stars
comments

My Friends Over You Tab

   
#----------------------------------PLEASE NOTE---------------------------------#
#This file is the author's own work and represents their interpretation of the #
#song. You may only use this file for private study, scholarship, or research. #
#------------------------------------------------------------------------------##

                               MY FRIENDS OVER YOU
                         As recorded by New Found Glory
                     (From the 2002 Album STICKS AND STONES)

Words by Jordan Pundik

Music by Jordan Pundik, Steve Klien, Chad Gilbert, Ian Grushka, Cyrus Bolooki
Arranged by Jordan Pundik, Steve Klien, Chad Gilbert, Ian Grushka, Cyrus Bolooki
Transcribed by Brodie Tavares

Gtr I (E A D G B E) - 'Untitled'
Gtr II (E A D G B E) - 'Untitled'
Gtr III (E A D G B E) - 'Untitled'

   Intro/Pre-Verse
    Q=95
    D5                                G5
   4/4
    Gtr II
||----------------------------------|---------------------------------|
||o-------7---------------7---------|-------7---------------7---------|
||--9-7-9---9-7-7-9-7-7-9---9-7-7-7-|-9-7-9---9-7-7-9-7-7-9---9-7-7-7-|
||----------------------------------|---------------------------------|
||o---------------------------------|---------------------------------|
||----------------------------------|---------------------------------|
|
|   Gtr III
|                 PM--|                             PM--|
||----------------------------------|---------------------------------|
||o---------------------------------|---------------------------------|
||--7-7-7---------------7-----------|---------------------------------|
||--7-7-7---------7---7-7-----------|-5-5-5---------------5-----------|
||o-5-5-5---------5---5-5-----------|-5-5-5---------5---5-5-----------|
||----------------------------------|-3-3-3---------3---3-3-----------|


  D5                                G5
|---------------------------------|--------------------------|
|-------7---------------7---------|-------7-------------8----|
|-9-7-9---9-7-7-9-7-7-9---9-7-7-7-|-9-7-9---9-7-7-9-7-7-7----|
|---------------------------------|--------------------------|
|---------------------------------|--------------------------|
|---------------------------------|--------------------------|
|
|               PM--|                             PM--|
|---------------------------------|--------------------------|
|---------------------------------|--------------------------|
|-7-7-7---------------7-----------|---------------------7----|
|-7-7-7---------7---7-7-----------|-5-5-5---------------5----|
|-5-5-5---------5---5-5-----------|-5-5-5---------5---5-5----|
|---------------------------------|-3-3-3---------3---3-3----|


 Verses 1 & 2
  D5              G5              D5              E5         F#G5         F#5
         PM|             PM|             PM|
|---------------|---------------|---------------|----------------------------|
|---------------|---------------|---------------|----------------------------|
|---7-7------7--|---------------|---7-7------7--|----------------------------|
|-7-7-7--7-7-7--|-5-5-5------5--|-7-7-7--7-7-7--|-2--2--2--2-4-5--5--5--5-4--|
|-5-5-5--5-5-5--|-5-5-5--5-5-5--|-5-5-5--5-5-5--|-2--2--2--2-4-5--5--5--5-4--|
|---------------|-3-3-3--3-3-3--|---------------|-0--0--0--0-2-3--3--3--3-2--|


  D5                    G5
    Gtr II
|---------------------|---------------|
|---------------------|---------------|
|---------------------|---------------|
|-----------------4S5-|---------------|
|---------------------|---------------|
|-----------------2S3-|---------------|
|
| Gtr III
|        PM-|                  PM|
|---------------------|---------------|
|---------------------|---------------|
|---7-7-------7-------|---------------|
|-7-7-7--7--7-7-------|-5-5-5------5--|
|-5-5-5--5--5-5-------|-5-5-5--5-5-5--|
|---------------------|-3-3-3--3-3-3--|


  D5                                E5         F#G5         F#5
|---------------------------------|------------------------------|
|-------7---------------7---------|------------------------------|
|-9-7-9---9-7-7-9-7-7-9---9-7-7-7-|------------------------------|
|---------------------------------|-2--2--2--2-4-5--5--5--5-4----|
|---------------------------------|-2--2--2--2-4-5--5--5--5-4----|
|---------------------------------|-0--0--0--0-2-3--3--3--3-2----|
|
|               PM--|
|---------------------------------|------------------------------|
|---------------------------------|------------------------------|
|---7-7---------------7-----------|------------------------------|
|-7-7-7---------7---7-7-----------|-2--2--2--2-4-5--5--5--5-4----|
|-5-5-5---------5---5-5-----------|-2--2--2--2-4-5--5--5--5-4----|
|---------------------------------|-0--0--0--0-2-3--3--3--3-2----|


 Pre - Chorus
  E5         F#G5         F#5 E5         F#G5         G5
|---------------------------|---------------------------|
|---------------------------|---------------------------|
|---------------------------|---------------------------|
|-2--2--2--2-4-5--5--5--5-4-|-2--2--2--2-4-5--5--5--5-4-|
|-2--2--2--2-4-5--5--5--5-4-|-2--2--2--2-4-5--5--5--5-4-|
|-0--0--0--0-2-3--3--3--3-2-|-0--0--0--0-2-3--3--3--3-2-|
|
|---------------------------|---------------------------|
|---------------------------|---------------------------|
|---------------------------|---------------------------|
|-2--2--2--2-4-5--5--5--5-4-|-2--2--2--2-4-5--5--5--5-4-|
|-2--2--2--2-4-5--5--5--5-4-|-2--2--2--2-4-5--5--5--5-4-|
|-0--0--0--0-2-3--3--3--3-2-|-0--0--0--0-2-3--3--3--3-2-|


  A5
|------------------------------|
|------------------------------|
|------------------------------|
|-7-7-7-7-7-7-7----------------|
|-7-7-7-7-7-7-7----------------|
|-5-5-5-5-5-5-5----------------|
|
|------------------------------|
|------------------------------|
|------------------------------|
|-7-7-7-7-7-7-7--x-x-x-x-x-x---|
|-7-7-7-7-7-7-7--x-x-x-x-x-x---|
|-5-5-5-5-5-5-5--x-x-x-x-x-x---|


 Chorus 1 & 2
  D5                                G5
|---------------------------------|---------------------------------|
|---------------------------------|---------------------------------|
|-7-7-7-7-7-7-7-7-7-7-7-7-7-7-7-7-|-7-7-7-7-7-7-7-7-7-7-7-7-7S6-6-6-|
|-7-7-7-7-7-7-7-7-7-7-7-7-7-7-7-7-|---------------------------------|
|-5-5-5-5-5-5-5-5-5-5-5-5-5-5-5-5-|-5-5-5-5-5-5-5-5-5-5-5-5-5S4-4-4-|
|---------------------------------|---------------------------------|
|
|---------------------------------|---------------------------------|
|---------------------------------|---------------------------------|
|-7-7-7-7-7-7-7-7-7-7-7-7-7-7-7-7-|---------------------------------|
|-7-7-7-7-7-7-7-7-7-7-7-7-7-7-7-7-|-5-5-5-5-5-5-5-5-5-5-5-5-5-5-5-5-|
|-5-5-5-5-5-5-5-5-5-5-5-5-5-5-5-5-|-5-5-5-5-5-5-5-5-5-5-5-5-5-5-5-5-|
|---------------------------------|-3-3-3-3-3-3-3-3-3-3-3-3-3-3-3-3-|


  D5                                G5
|---------------------------------|-------------------------------------|
|---------------------------------|-------------------------------------|
|-7-7-7-7-7-7-7-7-7-7-7-7-7-7-7-7-|-------------------------------------|
|-7-7-7-7-7-7-7-7-7-7-7-7-7-7-7-7-|-5-5-5-5-5-5-5-5---x\----------------|
|-5-5-5-5-5-5-5-5-5-5-5-5-5-5-5-5-|-5-5-5-5-5-5-5-5---x\----------------|
|---------------------------------|-3-3-3-3-3-3-3-3---x\----------------|
|
|---------------------------------|-------------------------------------|
|---------------------------------|-------------------------------------|
|-7-7-7-7-7-7-7-7-7-7-7-7-7-7-7-7-|-------------------------------------|
|-7-7-7-7-7-7-7-7-7-7-7-7-7-7-7-7-|-5-5-5-5-5-5-5-5-5-5--5-5-5-5-5-5----|
|-5-5-5-5-5-5-5-5-5-5-5-5-5-5-5-5-|-5-5-5-5-5-5-5-5-5-5--5-5-5-5-5-5----|
|---------------------------------|-3-3-3-3-3-3-3-3-3-3--3-3-3-3-3-3----|


  B5                                G5
|---------------------------------|---------------------------------|
|---------------------------------|---------------------------------|
|-4-4-4-4-4-4-4-4S6-6-6-6S7-7-7-7-|-----------------6-6-6-6S7-7-7-7-|
|-4-4-4-4-4-4-4-4-----------------|-5-5-5-5-5-5-5-5-----------------|
|-2-2-2-2-2-2-2-2S4-4-4-4S5-5-5-5-|-5-5-5-5-5-5-5-5S4-4-4-4S5-5-5-5-|
|---------------------------------|-3-3-3-3-3-3-3-3-----------------|
|
|---------------------------------|---------------------------------|
|---------------------------------|---------------------------------|
|-4-4-4-4-4-4-4-4-4-4-4-4-4-4-4-4-|---------------------------------|
|-4-4-4-4-4-4-4-4-4-4-4-4-4-4-4-4-|-5-5-5-5-5-5-5-5-5-5-5-5-5-5-5-5-|
|-2-2-2-2-2-2-2-2-2-2-2-2-2-2-2-2-|-5-5-5-5-5-5-5-5-5-5-5-5-5-5-5-5-|
|---------------------------------|-3-3-3-3-3-3-3-3-3-3-3-3-3-3-3-3-|


  B5                                G F#E D A5
|---------------------------------|---------------||
|---------------------------------|--------------o||
|-4-4-4-4-4-4-4-4S6-6-6-6S7-7-7-7-|---------------||
|-4-4-4-4-4-4-4-4-----------------|---------------||
|-2-2-2-2-2-2-2-2S4-4-4-4S5-5-5-5-|---------7----o||
|---------------------------------|---------5-----||
|
|---------------------------------|---------------||
|---------------------------------|--------------o||
|-4-4-4-4-4-4-4-4-4-4-4-4-4-4-4-4-|---------------||
|-4-4-4-4-4-4-4-4-4-4-4-4-4-4-4-4-|-------0-------||
|-2-2-2-2-2-2-2-2-2-2-2-2-2-2-2-2-|--------------o||
|---------------------------------|-3-2-0---5-----||

[ Tab from: http://www.guitartabs.cc/tabs/n/new_found_glory/my_friends_over_you_tab_ver_11.html ]
 Bridge
  D               B                 D5            B5
                                                                  3x
|---------------|---------------||--------------|-----------------||
|---------------|---------------||o-------------|----------------o||
|---------------|---------------||--------------|-----------------||
|---------------|---------------||--7-----7-----|-4-----4---------||
|-5-----5-------|-2-----2-------||o-5-4-5-5-4-5-|-2-4-5-2-7-5----o||
|---2-3---2-3---|---2-3---5-3---||----2-3---2-3-|---2-3---5-3-----||
|
|                                                                 3x
|---------------|---------------||--------------|-----------------||
|---------------|---------------||o-------------|----------------o||
|---------------|---------------||--------------|-----------------||
|---------------|---------------||--7-----7-----|-4-----4---------||
|---------------|---------------||o-5-4-5-5-4-5-|-2-4-5-2-7-5----o||
|---------------|---------------||----2-3---2-3-|---2-3---5-3-----||


 Pre-Chorus
  E5     F#G5       E5     F#G5
  Gtr I
|-----------------|-----------------|
|-----------------|-----------------|
|-----------------|-----------------|
|-2--x-x-4-5--5\--|-2--x-x-4-5--5\--|
|-2--x-x-4-5--5\--|-2--x-x-4-5--5\--|
|-0--x-x-2-3--3\--|-0--x-x-2-3--3\--|
|
|-----------------|-----------------|
|-----------------|-----------------|
|-----------------|-----------------|
|-----------------|-----------------|
|-----------------|-----------------|
|-----------------|-----------------|


  E5     F#G5       A5
                    Gtr II
|-----------------|----------------------------|
|-----------------|----------------------------|
|-----------------|----------------------------|
|-2--x-x-4-5--5\--|-7-7-7-7-7-7-7--x-x-x-x-x-x-|
|-2--x-x-4-5--5\--|-7-7-7-7-7-7-7--x-x-x-x-x-x-|
|-0--x-x-2-3--3\--|-5-5-5-5-5-5-5--x-x-x-x-x-x-|
|
|-----------------|----------------------------|
|-----------------|----------------------------|
|-----------------|----------------------------|
|-----------------|-7-7-7-7-7-7-7--------------|
|-----------------|-7-7-7-7-7-7-7--------------|
|-----------------|-5-5-5-5-5-5-5--------------|


 Chorus 3
  D5                                G5
|---------------------------------|---------------------------------|
|---------------------------------|---------------------------------|
|-7-7-7-7-7-7-7-7-7-7-7-7-7-7-7-7-|-7-7-7-7-7-7-7-7-7-7-7-7-7S6-6-6-|
|-7-7-7-7-7-7-7-7-7-7-7-7-7-7-7-7-|---------------------------------|
|-5-5-5-5-5-5-5-5-5-5-5-5-5-5-5-5-|-5-5-5-5-5-5-5-5-5-5-5-5-5S4-4-4-|
|---------------------------------|---------------------------------|
|
|---------------------------------|---------------------------------|
|---------------------------------|---------------------------------|
|-7-7-7-7-7-7-7-7-7-7-7-7-7-7-7-7-|---------------------------------|
|-7-7-7-7-7-7-7-7-7-7-7-7-7-7-7-7-|-5-5-5-5-5-5-5-5-5-5-5-5-5-5-5-5-|
|-5-5-5-5-5-5-5-5-5-5-5-5-5-5-5-5-|-5-5-5-5-5-5-5-5-5-5-5-5-5-5-5-5-|
|---------------------------------|-3-3-3-3-3-3-3-3-3-3-3-3-3-3-3-3-|


  D5                                G5
|---------------------------------|-------------------------------------|
|---------------------------------|-------------------------------------|
|-7-7-7-7-7-7-7-7-7-7-7-7-7-7-7-7-|-------------------------------------|
|-7-7-7-7-7-7-7-7-7-7-7-7-7-7-7-7-|-5-5-5-5-5-5-5-5-x\------------------|
|-5-5-5-5-5-5-5-5-5-5-5-5-5-5-5-5-|-5-5-5-5-5-5-5-5-x\------------------|
|---------------------------------|-3-3-3-3-3-3-3-3-x\------------------|
|
|---------------------------------|-------------------------------------|
|---------------------------------|-------------------------------------|
|-7-7-7-7-7-7-7-7-7-7-7-7-7-7-7-7-|-------------------------------------|
|-7-7-7-7-7-7-7-7-7-7-7-7-7-7-7-7-|-5-5-5-5-5-5-5-5-5--5-5-5-5-5-5-5----|
|-5-5-5-5-5-5-5-5-5-5-5-5-5-5-5-5-|-5-5-5-5-5-5-5-5-5--5-5-5-5-5-5-5----|
|---------------------------------|-3-3-3-3-3-3-3-3-3--3-3-3-3-3-3-3----|


    B5                                G5
||----------------------------------|---------------------------------|
||o---------------------------------|---------------------------------|
||--4-4-4-4-4-4-4-4S6-6-6-6S7-7-7-7-|-----------------6-6-6-6S7-7-7-7-|
||--4-4-4-4-4-4-4-4-----------------|-5-5-5-5-5-5-5-5-----------------|
||o-2-2-2-2-2-2-2-2S4-4-4-4S5-5-5-5-|-5-5-5-5-5-5-5-5S4-4-4-4S5-5-5-5-|
||----------------------------------|-3-3-3-3-3-3-3-3-----------------|
|
||----------------------------------|---------------------------------|
||o---------------------------------|---------------------------------|
||--4-4-4-4-4-4-4-4-4-4-4-4-4-4-4-4-|---------------------------------|
||--4-4-4-4-4-4-4-4-4-4-4-4-4-4-4-4-|-5-5-5-5-5-5-5-5-5-5-5-5-5-5-5-5-|
||o-2-2-2-2-2-2-2-2-2-2-2-2-2-2-2-2-|-5-5-5-5-5-5-5-5-5-5-5-5-5-5-5-5-|
||----------------------------------|-3-3-3-3-3-3-3-3-3-3-3-3-3-3-3-3-|


  B5                                G F#E D A5
|---------------------------------|--------------|
|---------------------------------|--------------|
|-4-4-4-4-4-4-4-4S6-6-6-6S7-7-7-7-|--------------|
|-4-4-4-4-4-4-4-4-----------------|--------------|
|-2-2-2-2-2-2-2-2S4-4-4-4S5-5-5-5-|---------7----|
|---------------------------------|---------5----|
|
|---------------------------------|--------------|
|---------------------------------|--------------|
|-4-4-4-4-4-4-4-4-4-4-4-4-4-4-4-4-|--------------|
|-4-4-4-4-4-4-4-4-4-4-4-4-4-4-4-4-|-------0------|
|-2-2-2-2-2-2-2-2-2-2-2-2-2-2-2-2-|--------------|
|---------------------------------|-3-2-0---5----|


 Outro-Chorus
  1.
  D5                                G5
|---------------------------------|---------------------------------|
|---7-7-7-----------7-7-7---------|---7-7-7-----------7-7-7---------|
|-9-------9-7-7-7-9-------9-7-7-7-|-9-------9-7-7-7-9-------9-7-7-7-|
|---------------------------------|---------------------------------|
|---------------------------------|---------------------------------|
|---------------------------------|---------------------------------|
|
|---------------------------------|---------------------------------|
|---------------------------------|---------------------------------|
|-7-7-7-7-7-7-7-7-7-7-7-7-7-7-7-7-|---------------------------------|
|-7-7-7-7-7-7-7-7-7-7-7-7-7-7-7-7-|-5-5-5-5-5-5-5-5-5-5-5-5-5-5-5-5-|
|-5-5-5-5-5-5-5-5-5-5-5-5-5-5-5-5-|-5-5-5-5-5-5-5-5-5-5-5-5-5-5-5-5-|
|---------------------------------|-3-3-3-3-3-3-3-3-3-3-3-3-3-3-3-3-|


  D5                                G5
|---------------------------------|-------------------------------------||
|---7-7-7-----------7-7-7---------|---7-7-7-----------7-7-7------------o||
|-9-------9-7-7-7-9-------9-7-7-7-|-9-------9-7-7-7-9-------9-7-7-7-----||
|---------------------------------|-------------------------------------||
|---------------------------------|------------------------------------o||
|---------------------------------|-------------------------------------||
|
|---------------------------------|-------------------------------------||
|---------------------------------|------------------------------------o||
|-7-7-7-7-7-7-7-7-7-7-7-7-7-7-7-7-|-------------------------------------||
|-7-7-7-7-7-7-7-7-7-7-7-7-7-7-7-7-|-5-5-5-5-5-5-5-5-5-5-5-5-5-5-5-5-----||
|-5-5-5-5-5-5-5-5-5-5-5-5-5-5-5-5-|-5-5-5-5-5-5-5-5-5-5-5-5-5-5-5-5----o||
|---------------------------------|-3-3-3-3-3-3-3-3-3-3-3-3-3-3-3-3-----||


 Outro
  2.
  D5                                G5
|---------------------------------|---------------------------------|
|-------7---------------7---------|-------7---------------7---------|
|-9-7-9---9-7-7-9-7-7-9---9-7-7-7-|-9-7-9---9-7-7-9-7-7-9---9-7-7-7-|
|---------------------------------|---------------------------------|
|---------------------------------|---------------------------------|
|---------------------------------|---------------------------------|
|
|               PM--|                             PM--|
|---------------------------------|---------------------------------|
|---------------------------------|---------------------------------|
|---7-7---------------7-----------|---------------------------------|
|-7-7-7---------7---7-7-----------|-5-5-5---------------5-----------|
|-5-5-5---------5---5-5-----------|-5-5-5---------5---5-5-----------|
|---------------------------------|-3-3-3---------3---3-3-----------|


  D5                                G5
|---------------------------------|--------------------------|
|-------7---------------7---------|-------7-------------8----|
|-9-7-9---9-7-7-9-7-7-9---9-7-7-7-|-9-7-9---9-7-7-9-7-7-7----|
|---------------------------------|--------------------------|
|---------------------------------|--------------------------|
|---------------------------------|--------------------------|
|
|               PM--|                             PM--|
|---------------------------------|--------------------------|
|---------------------------------|--------------------------|
|---7-7---------------7-----------|---------------------7----|
|-7-7-7---------7---7-7-----------|-5-5-5---------------5----|
|-5-5-5---------5---5-5-----------|-5-5-5---------5---5-5----|
|---------------------------------|-3-3-3---------3---3-3----|


   >
|------------|------------|------------|--------*|
|-(8)--------|-(8)--------|-(8)--------|-(8)----*|
|-(7)--------|-(7)--------|-(7)--------|-(7)----*|
|------------|------------|------------|--------*|
|------------|------------|------------|--------*|
|------------|------------|------------|--------*|
|
|  >
|------------|------------|------------|--------*|
|------------|------------|------------|--------*|
|-(7)--------|-(7)--------|-(7)--------|-(7)----*|
|-(5)--------|-(5)--------|-(5)--------|-(5)----*|
|-(5)--------|-(5)--------|-(5)--------|-(5)----*|
|-(3)--------|-(3)--------|-(3)--------|-(3)----*|


Tablature Legend
----------------
 h   - hammer-on
 p   - pull-off
 b   - bend
 pb  - pre-bend
 r   - bend release (if no number after the r, then release immediately)
 /\  - slide into or out of (from/to "nowhere")
 s   - legato slide
 S   - shift slide
  - natural harmonic
[n]  - artificial harmonic
n(n) - tapped harmonic
 ~   - vibrato
 tr  - trill
 T   - tap
 TP  - trem. picking
 PM  - palm muting
\n/  - tremolo bar dip; n = amount to dip
 \n  - tremolo bar down
 n/  - tremolo bar up
/n\  - tremolo bar inverted dip
 =   - hold bend; also acts as connecting device for hammers/pulls
 <>  - volume swell (louder/softer)
 x   - on rhythm slash represents muted slash
 o   - on rhythm slash represents single note slash

Misc Legend
-----------
 |  - bar
||  - double bar
||o - repeat start
o|| - repeat end
*|  - double bar (ending)
 :  - bar (freetime)
 $  - Segno
 &  - Coda
Tempo markers -  = BPM(8/16=s8/s16), where s8 = swing 8ths, 
s16 = swing 16ths
Comments