New Found Glory - My Friends Over You Chords & Tabs

 

My Friends Over You Chords & Tabs

New Found Glory Chords & Tabs

Version: 10 Type: Tab 0 ratings
1 star 2 stars 3 stars 4 stars 5 stars
comments

My Friends Over You Tab

i am pretty sure this tab is right i had to listen to the song with my 
headphones and even had to watch the video a couple of times just to 
get all the chords and shit right so dont bite my head off if its wrong.
i swear to god that this tab is right.  

this song is in standard tunning
Palm Mute = - 

Guitar 1 (Steve)
Guitar 2 (Chad)

Intro:Guitar 1
e|--------------------------------|x2
B|--------------------------------|
G|--7-7-7--7--7-7-----------------|
D|--7-7-7--7--7-7--5-5-5--5--5-5--|
A|--5-5-5--5--5-5--5-5-5--5--5-5--|
E|-----------------3-3-3--3--3-3--|
              -              -
Guitar 2
e|---------------------------------|x4
B|--------7---------------7--------|
G|--9-7-9---9-7-7-9-7-7-9---9-7-7--|
D|---------------------------------|
A|---------------------------------|
E|---------------------------------|

Verse:Guitar 1
e|----------------------------------------------------------------|
B|----------------------------------------------------------------|
G|--7-7-7--7--7-7-----------------7-7-7--7--7-7-------------------|
D|--7-7-7--7--7-7--5-5-5--5--5-5--7-7-7--7--7-7--2-2-2-2-5-5-5-5--|
A|--5-5-5--5--5-5--5-5-5--5--5-5--5-5-5--5--5-5--2-2-2-2-5-5-5-5--|
E|-----------------3-3-3--3--3-3-----------------0-0-0-0-3-3-3-3--|
              -              -              -                 
Guitar 2
e|--------------------------------------------------------------------|
B|--------------------------------------------------------------------|
G|--7-7-7--7--7-7-----------------7-7-7--7--7-7--9-9-9-9-12-12-12-12--|
D|--7-7-7--7--7-7--5-5-5--5--5-5--7-7-7--7--7-7--x-x-x-x--x--x--x--x--|
A|--5-5-5--5--5-5--5-5-5--5--5-5--5-5-5--5--5-5--7-7-7-7-10-10-10-10--|
E|-----------------3-3-3--3--3-3--------------------------------------| 
              -              -              -
Guitar 1
e|----------------------------------------------------------------|
B|----------------------------------------------------------------|
G|--7-7-7--7--7-7-----------------7-7-7--7--7-7-------------------|
D|--7-7-7--7--7-7--5-5-5--5--5-5--7-7-7--7--7-7--2-2-2-2-5-5-5-5--|
A|--5-5-5--5--5-5--5-5-5--5--5-5--5-5-5--5--5-5--2-2-2-2-5-5-5-5--|
E|-----------------3-3-3--3--3-3-----------------0-0-0-0-3-3-3-3--|

Guitar 2
e|-----------------------------------------------------------------|
B|-----------------------------------------------------------------|
G|--7-7-7--7--7-7--------------------7-------7---------------------|
D|--7-7-7--7--7-74/55-5-5--5--5-5-979-9779779-977-2-2-2-2-5-5-5-5--|
A|--5-5-5--5--5-5---5-5-5--5--5-5-----------------2-2-2-2-5-5-5-5--|
E|------------------3-3-3--3--3-3-----------------0-0-0-0-3-3-3-3--|

Pre-Chorus:Guitar 1
e|-------------------------------------------------|
B|-------------------------------------------------|
G|-------------------------------------------------|
D|--2-2-2-2--5-5-5-5--2-2-2-2--5-5-5-5--7-7-7-7-7--|
A|--2-2-2-2--5-5-5-5--2-2-2-2--5-5-5-5--7-7-7-7-7--|
E|--0-0-0-0--3-3-3-3--0-0-0-0--3-3-3-3--5-5-5-5-5--|

Guitar 2
e|-----------------------------------------------------|
B|-----------------------------------------------------|
G|--------------------9-9-9-9--12-12-12-12--9-9-9-9-9--|
D|--2-2-2-2--5-5-5-5--x-x-x-x---x--x--x--x--x-x-x-x-x--|
A|--2-2-2-2--5-5-5-5--7-7-7-7--10-10-10-10--7-7-7-7-7--|
E|--0-0-0-0--3-3-3-3-----------------------------------|
[ Tab from: http://www.guitartabs.cc/tabs/n/new_found_glory/my_friends_over_you_tab_ver_10.html ]
Chorus:Guitar 1
e|------------------------------------------------------------------------------------------------------|
B|------------------------------------------------------------------------------------------------------|
G|--7-7-7-7-7-7-7-7-------------------7-7-7-7-7-7-7-7-------------------4-4-4-4-4-4-4-------------------|
D|--7-7-7-7-7-7-7-7--5-5-5-5-5-5-5-5--7-7-7-7-7-7-7-7--5-5-5-5-5-5-5-5--4-4-4-4-4-4-4--5-5-5-5-5-5-5-5--|
A|--5-5-5-5-5-5-5-5--5-5-5-5-5-5-5-5--5-5-5-5-5-5-5-5--5-5-5-5-5-5-5-5--2-2-2-2-2-2-2--5-5-5-5-5-5-5-5--|
E|-------------------3-3-3-3-3-3-3-3-------------------3-3-3-3-3-3-3-3-----------------3-3-3-3-3-3-3-3--|

e|--------------------------------|
B|--------------------------------|
G|--4-4-4-4-4-4-4-----------------|
D|--4-4-4-4-4-4-4-----------------|
A|--2-2-2-2-2-2-2-----------55----|
E|-----------------33-22-00----5--|

Guitar 2
e|------------------------------------------------------------------------------------------------------|
B|------------------------------------------------------------------------------------------------------|
G|--7-7-7-7-7-7-7-7-7-7-7-7-7-7-7-7-7-66-7-7-7-7-7-7-7-7-7-7-7-7-7-7-7--44444466667777--------66667777--|
D|--x-x-x-x-x-x-x-x-x-x-x-x-x-x-x-x-x-xx-x-x-x-x-x-x-x-x-x-x-x-x-x-x-x--xxxxxxxxxxxxxx--555555xxxxxxxx--|
A|--5-5-5-5-5-5-5-5-5-5-5-5-5-5-5-5-5-44-5-5-5-5-5-5-5-5-5-5-5-5-5-5-5--22222244445555--xxxxxx44445555--|
E|--------------------------------------------------------------------------------------333333----------|

e|---------------------------------|
B|---------------------------------|
G|--44444466667777-----------------|
D|--xxxxxxxxxxxxxx-----------------|
A|--22222244445555-----------55----|
E|-----------------33-22-00-----5--|

Intro
Verse
Pre-Chorus
Chorus: but i just can't finish what i started (slide)

Bridge:Guitar 2 
e|---------------------------|
B|---------------------------|
G|---------------------------|
D|---------------------------|
A|--5------5----2------2-----|
E|-----2-3---23----2-3---53--|

Both guitars
e|---------------------------|x3
B|---------------------------|
G|---------------------------|
D|---------------------------|
A|--5------5----2------2-----|
E|-----2-3---23----2-3---53--|

Pre-Chorus:Guitar 1
e|----------------------------------------------------------|
B|----------------------------------------------------------|
G|----------------------------------------------------------|
D|--2-2-2-x--5-5-5-5--2-2-2-x--5-5-5-5--2-2-2-x--7-7-7-7-7--|
A|--2-2-2-x--5-5-5-5--2-2-2-x--5-5-5-5--2-2-2-x--7-7-7-7-7--|
E|--0-0-0-x--3-3-3-3--0-0-0-x--3-3-3-3--0-0-0-x--5-5-5-5-5--|

Guitar 2
e|----------------------------------------------------------|
B|----------------------------------------------------------|
G|-----------------------------------------------9-9-9-9-9--|
D|-----------------------------------------------x-x-x-x-x--|
A|-----------------------------------------------7-7-7-7-7--|
E|----------------------------------------------------------|

Chorus: but i just can't finish what i started (slide)

Chorus:
Guitar 3
e|---------------------------------|x4
B|--------7---------------7--------|
G|--9-7-9---9-7-7-9-7-7-9---9-7-7--|
D|---------------------------------|
A|---------------------------------|
E|---------------------------------|

Outro:Guitar 1
e|--------------------------------|x2
B|--------------------------------|
G|--7-7-7--7--7-7-----------------|
D|--7-7-7--7--7-7--5-5-5--5--5-5--|
A|--5-5-5--5--5-5--5-5-5--5--5-5--|
E|-----------------3-3-3--3--3-3--|
              -              -
Guitar 2
e|---------------------------------|x4
B|--------7---------------7--------|
G|--9-7-9---9-7-7-9-7-7-9---9-7-7--|
D|---------------------------------|
A|---------------------------------|
E|---------------------------------|

END
well thats it hope you like it.
Comments