New Found Glory - My Friends Over You Chords & Tabs

 

My Friends Over You Chords & Tabs

New Found Glory Chords & Tabs

Version: 5 Type: Bass Tab 0 ratings
1 star 2 stars 3 stars 4 stars 5 stars
comments

My Friends Over You Bass Tab

                Intro
G---------------------------------
D--------------------------------
A-55--555---------55--555--------
E---------33--333---------33-333-

		Verse
g----------------------------------------------------------------------------
d----------------------------------------------------------------------------
a-55---555---------55-555------------55-555--------55-555--------------------
e----------33--333--------0002h3333--------33-333--------0002h(3333-5555 x4)
[ Tab from: http://www.guitartabs.cc/tabs/n/new_found_glory/my_friends_over_you_btab_ver_5.html ]
		Chorus
g-------------------------------------------------------------------------
d-------------------------------------------------------------------------
a-55555555----------55555555----------22222222----------2222222-----------
e----------33333333----------33333333----------33333333---------3-2-0-2-5-

intro
verse
chorus

bridge x4
G-----------------------------------------------------------------------
D-----------------------------------------------------------------------
A--------5--------5--------2------2-------------------------------------
E----------2-3------2-3------2-3----5-3---------------------------------

(GUITAR)

CHORUS x2
G---------------------------------------------------------------------------
D----------------------------------------------4---7-55555555---------------
A-55555555----------55555555----------22222222----------------22222222------
E----------33333333----------33333333----------------------------------32025

INTRO
Comments