New Found Glory - My Friends Over You Chords & Tabs

 

My Friends Over You Chords & Tabs

New Found Glory Chords & Tabs

Version: 3 Type: Bass Tab 0 ratings
1 star 2 stars 3 stars 4 stars 5 stars
comments

My Friends Over You Bass Tab

Please don't give pissed if its wrong, no ones perfect...It sounds really good and the 
tuninig is standard Also look out for my band "Se7en"


Intro/Verse


G|-----------------------------------------------
D|-----------------------------------------------
A|--5-5--55-5--------------5-5--55--5------------
E|-------------3-3--33-3---------------3-3--33-3-

Fill 1

G|-----------------------------------------------
D|-----------------------------------------------
A|-----------------------------------------------
E|--00000-333333---------------------------------

Pre 

G|-----------------------------------------------
D|-----------------------------------------------
A|-----------------------------------------------
E|--00000-33333-000000-333333-00000-3333333------

G|-----------------------------------------------
D|-----------------------------------------------
A|-----------------------------------------------
E|--55555555-------------------------------------


Chorus
[ Tab from: http://www.guitartabs.cc/tabs/n/new_found_glory/my_friends_over_you_btab_ver_3.html ]
G|-----------------------------------------------
D|-----------------------------------------------
A|-----------------------------------------------
E|--555555555--3333333333--55555555--333333333333

G|-----------------------------------------------
D|-----------------------------------------------
A|-----------------------------------------------
E|--555555555--3333333333--55555555--333333333333

G|-----------------------------------------------
D|-----------------------------------------------
A|-------------3-3---------------3-3-------------
E|---55555555----------55555555------------------

G|-----------------------------------------------
D|-----------------------------------------------
A|-----------------------------------------------
E|-00-3-00-2--------------------------------------

Bridge
(Play same with guitarist
G|-----------------------------------------------
D|-----------------------------------------------
A|-5------5------2------2------------------------
E|---2--3---2--3---2--3---5--3-------------------

Song Construction

Intro  1x
Verse  1x
Fill   1x
Verse  1x
Pre    1x
Chorus 1x
Intro  1x
Verse  1x
Fill   1x
Pre    1x
Chorus 1x
Bridge 1x
Rest
Chorus 2x

This is NFGs newest single "My best friends over you", the cds doesn't come out till 
June but you can download some songs on Kazaa
Comments