New Found Glory - My Friends Over You Chords & Tabs

 

My Friends Over You Chords & Tabs

New Found Glory Chords & Tabs

Version: 2 Type: Bass Tab 0 ratings
1 star 2 stars 3 stars 4 stars 5 stars
comments

My Friends Over You Bass Tab

                              intro
G---------------------------------------------------------------------
D---------------------------------------------------------------------
A----55--555--------------------55--555---------------------
E-------------------33--333----------------------33-333---

		verse
g-----------------------------------------------------------------------------------------------------------------------------------------------------
d-------------------------------------------------------------------------------------------------------------------------------------------------------------
a--------55---555---------------55-555----------------------------55-555--------------55-555-----------------------------------------------------
e----------------------33--333---------------0002h33333------------------33-333--------------0002h3333  ( 3x's)-------5555555555555
[ Tab from: http://www.guitartabs.cc/tabs/n/new_found_glory/my_friends_over_you_btab_ver_2.html ]
		Chorus
g------------------------------------------------------------------------------------------------------------------------------------------------------------------------------------------
d------------------------------------------------------------------------------------------------------------------------------------------------------------------------------------------
a------55555555555555---------------------------------55555555555555---------------------------22222222222--------------------------2222222------------
e---------------------------------333333333333333----------------------------------3333333333-------------------------------33333333-------------------3-2-0-2-5

		Back to intro
	
		verse

		chorus

		bridge

G--------------------------------------------------------------------------------------
D-------------------------------------------------------------------------------------
A--------5--------5--------2------2---------------------------------------
E-----------2-3----2-3------2-3---5-3-------------------------------------

		(GUITAR)

		CHORUS
G-------------------------------------------------------------------------------
D----------------------------------------------------------------------------------------------------------4---7-555555555
A-----------55555555555--------------------5555555555-------------------22222222------------------------------------222222222
E---------------------------------33333333-----------------------33333333---------------------------------------------------------------------------3-2-0-2-5  ( 2X'S)

		INTRO THEN END
Comments