New Found Glory - I Dont Want To Miss A Thing Chords & Tabs

 

I Dont Want To Miss A Thing Chords & Tabs

New Found Glory Chords & Tabs

Version: 4 Type: Tab 0 ratings
1 star 2 stars 3 stars 4 stars 5 stars
comments

I Dont Want To Miss A Thing Tab

   
Artist - New Found Glory
Song - I Don't Want To Miss A Thing
Tuning - Standard (E,A,D,G,B,E)


Intro/Verse
e|-----------------------------------------------------------|
B|-----------------------------------------------------------|
G|-7-6-4-----------------7-6-4---------------------2---------|
D|-7-6-4------5-4-2------7-6-4------5-4-2------4-5-2---------|
A|-5-4-2------5-4-2------5-4-2------5-4-2------4-5-0---------|
E|------------3-2-0-----------------3-2-0------2-3-----------|
                                                    *********
Only play the part in brackets the first time, not the second verse
[ Tab from: http://www.guitartabs.cc/tabs/n/new_found_glory/i_dont_want_to_miss_a_thing_tab_ver_4.html ]
Chorus 
Play the first set of chords then play the last set on the end after the 
second time! And remember you will have 2 do some muting technique 
when you play the E chord!you will know!
e|--------------------------------------|-------|
B|--------------------------------------|-------|
G|-7-6-----------------7-6--------------|-7-6---|
D|-7-6-2----4-5--------7-6-2----4-5-----|-7-6-2-|
A|-5-4-2----4-5--------5-4-2----4-5-----|-5-4-2-|
E|-----0----2-3------------0----2-3-----|-----0-|

 first time, play these chords second time, go to bridge

Bridge  | x2 here! 
e|------|----------------------------------------------------|
B|------|----------------------------------------------------|
G|------|----------------------------------------------------|
D|-7-6--|-5*--4*--3*--2*-------------------------------------|
A|-5-4--|-3*--2*--1*--0*-------------------------------------|
E|------|----------------------------------------------------|



Listen to the song to get the timing right!!!!!

Song Order:
Intro/Verse
Chorus
Verse
Chorus
Bridge
Chorus
Outro

PLEASE PLEASE PLEASE RATE THIS TAB!!!!!!!!!!!!!!
Comments