New Found Glory - I Dont Wanna Know Chords & Tabs

 

I Dont Wanna Know Chords & Tabs

New Found Glory Chords & Tabs

Version: 4 Type: Tab 0 ratings
1 star 2 stars 3 stars 4 stars 5 stars
comments

I Dont Wanna Know Tab

   
Tabbed by:GuitarMaster41
E-Mail:LukeMaster41@aol.com

Artist:New Found Glory
Album:Catalyst
Song:I Don't Wanna Know

Tuning:EBGDAE

/ = SLIDE UP
\ = SLIDE DOWN
h = HAMMER ON
p = PULL OFF
. = PALM MUTE

Q = 85

--------------------
Intro:
--------------------

Guitar 1
E|------------------------|------------------------|
B|-------0-----------0----|-------0-----------0----|
G|-2--0-----0--2--0-----0-|-2--0-----0--2--0-----0-|
D|------------------------|------------------------|
A|----------------------0-|-3--3-----3--3--3-----0-|
E|-3--3-----3--3--3-------|------------------------|

Guitar 2
E|------------------------|------------------------|
B|------------------------|------------------------|
G|------------------------|------------------------|
D|------------------------|------------------------|
A|------------------------|------------------------|
E|------------------------|------------------------|

Guitar 1
E|------------------------|------------------------|
B|-------0-----------0----|-------0-----------0----|
G|-2--0-----0--2--0-----0-|-2--0-----0--2--0-----0-|
D|------------------------|------------------------|
A|----------------------0-|-3--3-----3--3--3-----0-|
E|-3--3-----3--3--3-------|------------------------|

Guitar 2
E|------------------------|------------------------|
B|------------------------|------------------------|
G|------------------------|------------------------|
D|------------------------|------------------------|
A|------------------------|------------------------|
E|------------------------|------------------------|

Guitar 1
E|------------------------|------------------------|
B|-------0-----------0----|-------0-----------0----|
G|-2--0-----0--2--0-----0-|-2--0-----0--2--0-----0-|
D|------------------------|------------------------|
A|----------0--3--3-----0-|----------0--3--3-----0-|
E|-3--3-------------------|-3--0-------------------|

Guitar 2
E|-3-3-3--3-3--3-3-3--3-3-|-3-3-3--3-3--3-3-3--3-3-|
B|-3-3-3--3-3--3-3-3--3-3-|-3-3-3--3-3--3-3-3--3-3-|
G|-0-0-0--0-0--0-0-0--0-0-|-0-0-0--0-0--0-0-0--0-0-|
D|-0-0-0--0-0--2-2-2--2-2-|-2-2-2--2-2--2-2-2--2-2-|
A|-2-2-2--2-2--3-3-3--3-3-|-2-2-2--2-2--3-3-3--3-3-|
E|-3-3-3--3-3-------------|-0-0-0--0-0-------------|

Guitar 1                    
E|------------------------|------------------------|
B|-------0-----------0----|-------0-----------0----|
G|-2--0-----0--2--0-----0-|-2--0-----0--2--0-----0-|
D|------------------------|------------------------|
A|----------0--3--3-----0-|----------0--3--3-----0-|
E|-3--3-------------------|-3--0-------------------|

Guitar 2 
E|-3-3-3--3-3--3-3-3--3-3-|-3-3-3--3-3--3-3-3--3-3-|
B|-3-3-3--3-3--3-3-3--3-3-|-3-3-3--3-3--3-3-3--3-3-|
G|-0-0-0--0-0--0-0-0--0-0-|-0-0-0--0-0--0-0-0--0-0-|
D|-0-0-0--0-0--2-2-2--2-2-|-2-2-2--2-2--2-2-2--2-2-|
A|-2-2-2--2-2--3-3-3--3-3-|-2-2-2--2-2--3-3-3--3-3-|
E|-3-3-3--3-3-------------|-0-0-0--0-0-------------|


--------------------
Verse:
--------------------

Guitar 1                    
E|------------------------|------------------------|
B|-------0-----------0----|-------0-----------0----|
G|-2--0-----0--2--0-----0-|-2--0-----0--2--0-----0-|
D|------------------------|------------------------|
A|----------------------0-|-3--3-----3--3--3-----0-|
E|-3--3-----3--3--3-------|------------------------|

Guitar 2
E|------------------------|------------------------|
B|------------------------|------------------------|
G|------------------------|------------------------|
D|------------------------|------------------------|
A|------------------------|------------------------|
E|------------------------|------------------------|

Guitar 1                    
E|------------------------|------------------------|
B|-------0-----------0----|-------0-----------0----|
G|-2--0-----0--2--0-----0-|-2--0-----0--2--0-----0-|
D|------------------------|------------------------|
A|----------------------0-|-3--3-----3--3--3-----0-|
E|-3--3-----3--3--3-------|------------------------|

Guitar 2
E|------------------------|------------------------|
B|------------------------|------------------------|
G|------------------------|------------------------|
D|------------------------|------------------------|
A|------------------------|------------------------|
E|------------------------|------------------------|

Guitar 1
E|------------------------|------------------------|
B|-------0-----------0----|-------0-----------0----|
G|-2--0-----0--2--0-----0-|-2--0-----0--2--0-----0-|
D|------------------------|------------------------|
A|----------------------0-|-3--3-----3--3--3-----0-|
E|-3--3-----3--3--3-------|------------------------|

Guitar 2
E|------------------------|------------------------|
B|------------------------|------------------------|
G|------------------------|------------------------|
D|------------------------|------------------------|
A|------------------------|------------------------|
E|------------------------|------------------------|

Guitar 1
E|------------------------|------------------------|
B|-------0-----------0----|-------0-----------0----|
G|-2--0-----0--2--0-----0-|-2--0-----0--2--0-----0-|
D|------------------------|------------------------|
A|----------------------0-|-3--3-----3--3--3-----0-|
E|-3--3-----3--3--3-------|------------------------|
[ Tab from: http://www.guitartabs.cc/tabs/n/new_found_glory/i_dont_wanna_know_tab_ver_4.html ]
Guitar 2
E|------------------------|------------------------|
B|------------------------|------------------------|
G|------------------------|------------------------|
D|------------------------|------------------------|
A|------------------------|------------------------|
E|------------------------|------------------------|

Guitar 1
E|------------|
B|-0--0--0--0-|
G|----------0-|
D|-2--2--0----|
A|------------|
E|------------|

Guitar 2
E|------------|
B|------------|
G|------------|
D|------------|
A|------------|
E|------------|

Guitar 1
E|---|
B|-1-|
G|-0-|
D|-2-|
A|-3-|
E|---|

Guitar 2
E|---|
B|---|
G|---|
D|---|
A|---|
E|---|


--------------------
Chorus:
--------------------

Guitars 1 & 2
E|-3--3--3--3----3--3--3--3-|-3--3--3--3----3--3--3--3-|
B|-3--3--3--3----3--3--3--3-|-3--3--3--3----3--3--3--3-|
G|-0--0--0--0----0--0--0--0-|-0--0--0--0----0--0--0--0-|
D|-0--0--0--0----2--2--2--2-|-2--2--2--2----2--2--2--2-|
A|-2--2--2--2----3--3--3--3-|-2--2--2--2----3--3--3--3-|
E|-3--3--3--3---------------|-0--0--0--0---------------|

Guitars 1 & 2
E|-3--3--3--3----3--3--3--3-|-3--3--3--3----3--3--3--3-|
B|-3--3--3--3----3--3--3--3-|-3--3--3--3----3--3--3--3-|
G|-0--0--0--0----0--0--0--0-|-0--0--0--0----0--0--0--0-|
D|-0--0--0--0----2--2--2--2-|-2--2--2--2----2--2--2--2-|
A|-2--2--2--2----3--3--3--3-|-2--2--2--2----3--3--3--3-|
E|-3--3--3--3---------------|-0--0--0--0---------------|

Guitars 1 & 2
E|-3--3--3--3----3--3--3--3-|-3--3--3--3----3--3--3--3-|
B|-3--3--3--3----3--3--3--3-|-3--3--3--3----3--3--3--3-|
G|-0--0--0--0----0--0--0--0-|-0--0--0--0----0--0--0--0-|
D|-0--0--0--0----2--2--2--2-|-2--2--2--2----2--2--2--2-|
A|-2--2--2--2----3--3--3--3-|-2--2--2--2----3--3--3--3-|
E|-3--3--3--3---------------|-0--0--0--0---------------|

Guitars 1 & 2
E|-3--3--3--3----3--3--3--3-|-3--3--3--3----2--2--2--2-|
B|-3--3--3--3----3--3--3--3-|-3--3--3--3----3--3--3--3-|
G|-0--0--0--0----0--0--0--0-|-0--0--0--0----2--2--2--2-|
D|-0--0--0--0----2--2--2--2-|-2--2--2--2----0--0--0--0-|
A|-2--2--2--2----3--3--3--3-|-2--2--2--2---------------|
E|-3--3--3--3---------------|-0--0--0--0---------------|


--------------------
Verse
--------------------


--------------------
Chorus
--------------------


--------------------
Bridge:
--------------------

Guitars 1 & 2
E|-0--0--0--0----0--0--0--0-|-2--2--2--2----2--2--2--2-|-0--0--0--0----0--0--0--0-|
B|-1--1--1--1----1--1--1--1-|-3--3--3--3----3--3--3--3-|-1--1--1--1----1--1--1--1-|
G|-0--0--0--0----0--0--0--0-|-2--2--2--2----2--2--2--2-|-0--0--0--0----0--0--0--0-|
D|-2--2--2--2----2--2--2--2-|-0--0--0--0----0--0--0--0-|-2--2--2--2----2--2--2--2-|
A|-3--3--3--3----3--3--3--3-|--------------------------|-3--3--3--3----3--3--3--3-|
E|--------------------------|--------------------------|--------------------------|

Guitars 1 & 2
E|-2--2--2--2----2--2--2--2-|-0--0--0--0----0--0--0--0-|-0--0--0--0----2--2--2--2-|
B|-3--3--3--3----3--3--3--3-|-0--0--0--0----0--0--0--0-|-0--0--0--0----3--3--3--3-|
G|-2--2--2--2----2--2--2--2-|-0--0--0--0----0--0--0--0-|-0--0--0--0----2--2--2--2-|
D|-0--0--0--0----0--0--0--0-|-2--2--2--2----2--2--2--2-|-2--2--2--2----0--0--0--0-|
A|--------------------------|-3--3--3--3----3--3--3--3-|-2--2--2--2---------------|
E|--------------------------|--------------------------|-0--0--0--0---------------|

Guitars 1 & 2
E|-0--0--0--0----0--0--0--0-|-2--2--2--2----2--2--2--2-|
B|-0--0--0--0----0--0--0--0-|-3--3--3--3----3--3--3--3-|
G|-0--0--0--0----0--0--0--0-|-2--2--2--2----2--2--2--2-|
D|-2--2--2--2----2--2--2--2-|-0--0--0--0----0--0--0--0-|
A|-3--3--3--3----3--3--3--3-|--------------------------|
E|--------------------------|--------------------------|


--------------------
Interlude:
--------------------

Guitar 1
E|-3----------------------|------------------------|
B|-3----------------------|------------------------|
G|-0----------------------|------------------------|
D|-0----------------------|------------------------|
A|-2----------------------|------------------------|
E|-3----------------------|------------------------|

Guitar 2
E|------------------------|------------------------|
B|-------0-----------0----|-------0-----------0----|
G|-2--0-----0--2--0-----0-|-2--0-----0--2--0-----0-|
D|------------------------|------------------------|
A|----------------------0-|-3--3-----3--3--3-----0-|
E|-3--3-----3--3--3-------|------------------------|

Guitar 1
E|------------------------|------------------------|
B|------------------------|------------------------|
G|------------------------|------------------------|
D|------------------------|------------------------|
A|------------------------|------------------------|
E|------------------------|---------------x-x--10\-|

Guitar 2
E|------------------------|------------------------|
B|-------0-----------0----|-------0-----------0----|
G|-2--0-----0--2--0-----0-|-2--0-----0--2--0-----0-|
D|------------------------|------------------------|
A|----------------------0-|-3--3-----3--3--3-----0-|
E|-3--3-----3--3--3-------|------------------------|


--------------------
Chorus
--------------------


--------------------
End On:
--------------------

Guitars 1 & 2
E|-3-|
B|-3-|
G|-0-|
D|-0-|
A|-2-|
E|-3-|
Comments