New Found Glory - I Dont Wanna Know Chords & Tabs

 

I Dont Wanna Know Chords & Tabs

New Found Glory Chords & Tabs

Version: 3 Type: Tab 0 ratings
1 star 2 stars 3 stars 4 stars 5 stars
comments

I Dont Wanna Know Tab

   
----------------------------------------------------------------------------
			     I Dont Wanna Know - New Found Glory
----------------------------------------------------------------------------
Tabbed by: Andy
Email: your_star_arr@yahoo.com

Tuning: eBGDAE (Standard)

Intro/Verse
e|-------------------------------------]-----------------------------------|
B|-----0--------0--------0--------0----]-----------------------------------|
G|-2-0---0--2-0---0--2-0---0--2-0---0--]--2 times--------------------------|
D|-------------------------------------]-----------------------------------|
A|-------------------3-3------3-3------]-----------------------------------|
E|-3-3------3-3------------------------]-----------------------------------|
                         I dont wanna know (2nd time) then goes into verse

  Verse (Play either this or the intro for the verse)
      G       C        Em7       C
e|----3-------0---------0--------0-----------------------------------------|
B|----3-------1---------3--------1-----------------------------------------|
G|----0-------0---------0--------0-----------------------------------------|
D|----0-------2---------2--------2-----------------------------------------|
A|----2-------3---------2--------3-----------------------------------------|
E|----3-----------------0--------------------------------------------------|
         The strumming is pretty easy and theres not really a difference in the chorus 
verse....Just listen to the song or do what sounds right.

   Bridge
      Em7     D        C
e|-----0------2--------0---------------------------------------------------|
B|-----3------3--------1---------------------------------------------------|
G|-----0------2--------0---------------------------------------------------|
D|-----2------0--------2---------------------------------------------------|
A|-----2---------------3---------------------------------------------------|
E|-----0-------------------------------------------------------------------|
 The Awkward ways we meet (I cant wait till we meet again <-2nd time)

    Chorus (Same as verse but dont play Intro)
      G      C     Em7    C
e|----3------0------0-----0------------------------------------------------|
B|----3------1------3-----1------------------------------------------------|
G|----0------0------0-----0------------------------------------------------|
D|----0------2------2-----2------------------------------------------------|
A|----2------3------2-----3------------------------------------------------|
E|----3-------------0------------------------------------------------------|
[ Tab from: http://www.guitartabs.cc/tabs/n/new_found_glory/i_dont_wanna_know_tab_ver_3.html ]
Verse 2 (Strum this or play the Intro)
      G       C        Em7       C
e|----3-------0---------0--------0-----------------------------------------|
B|----3-------1---------3--------1-----------------------------------------|
G|----0-------0---------0--------0-----------------------------------------|
D|----0-------2---------2--------2-----------------------------------------|
A|----2-------3---------2--------3-----------------------------------------|
E|----3-----------------0--------------------------------------------------|

   Bridge
      Em7     D        C
e|-----0------2--------0---------------------------------------------------|
B|-----3------3--------1---------------------------------------------------|
G|-----0------2--------0---------------------------------------------------|
D|-----2------0--------2---------------------------------------------------|
A|-----2---------------3---------------------------------------------------|
E|-----0-------------------------------------------------------------------|

Chorus (Same as verse but dont play Intro)
      G      C     Em7    C
e|----3------0------0-----0------------------------------------------------|
B|----3------1------3-----1------------------------------------------------|
G|----0------0------0-----0------------------------------------------------|
D|----0------2------2-----2------------------------------------------------|
A|----2------3------2-----3------------------------------------------------|
E|----3-------------0------------------------------------------------------|

    Interlude
    C    D    C    D    C    D    C    D    G
e|--0----2----0----2----0----2----0----2----3------------------------------|
B|--1----3----1----3----1----3----1----3----3------------------------------|
G|--0----3----0----2----0----2----0----2----0------------------------------|
D|--2----0----2----0----2----0----2----0----0------------------------------|
A|--3---------3---------3---------3---------2------------------------------|
E|------------------------------------------3------------------------------|

Chorus (twice i think)
      G      C     Em7    C
e|----3------0------0-----0------------------------------------------------|
B|----3------1------3-----1------------------------------------------------|
G|----0------0------0-----0------------------------------------------------|
D|----0------2------2-----2------------------------------------------------|
A|----2------3------2-----3------------------------------------------------|
E|----3-------------0------------------------------------------------------|

Ends on G

     G
e|---3---|
B|---3---|
G|---0---|
D|---0---|
A|---2---|
E|---3---|

| /  slide up
| \  slide down
| h  hammer-on
| p  pull-off
| ~  vibrato
| +  harmonic
| x  Mute note

Thanks to UGO for such a great site..and Sam for kinda helpin me learn guitar.
----------------------------------------------------------------------------
Comments