New Found Glory - I Dont Wanna Know Chords & Tabs

 

I Dont Wanna Know Chords & Tabs

New Found Glory Chords & Tabs

Version: 2 Type: Tab 0 ratings
1 star 2 stars 3 stars 4 stars 5 stars
comments

I Dont Wanna Know Tab

This is my first tab of a great song on new found glory's newest, and I hope it's right. 
me know what you think.

Intro/verses

E---------------------------------------------]
A---------0------------0--------0--------0----]
G-----------0------------0--------0--------0--]"I never cared how I..."
D-0----0-------0---0--------------------------]
A-12--10-------12--10------0--0-----0--0------]
E--------------------------8--8-----8--8------]


choruses
E------------------------------------------]
B------------------------------------------] "First comes heavy breathing.."
G-------------5-5-5-5--------------5-5-5-5-]
D---5-5-5-5---5-5-5-5----2-2-2-2---5-5-5-5-]
A---5-5-5-5---3-3-3-3----2-2-2-2---3-3-3-3-]
E---3-3-3-3--------------0-0-0-0-----------]
[ Tab from: http://www.guitartabs.cc/tabs/n/new_found_glory/i_dont_wanna_know_tab_ver_2.html ]
Bridge
E-----------------------------------------]
A-----------------------------------------]"Framed pictures start...."
G---5-5-5-5-5-5-5-5-----------------------]
D---5-5-5-5-5-5-5-5---2-2-2-2-2-2-2-2-----]
A---3-3-3-3-3-3-3-3---2-2-2-2-2-2-2-2-----]
E---------------------0-0-0-0-0-0-0-0-----]

E-----------------------------------------]
A-----------------------------------------]
G---5-5-5-5-5-5-5-5-----------------------]"constant visits while..."
D---5-5-5-5-5-5-5-5---2-2-2-2-2-2-2-2-----]
A---3-3-3-3-3-3-3-3---2-2-2-2-2-2-2-2-----]
E---------------------0-0-0-0-0-0-0-0-----]

E-------------------------------------------------------]
A-------------------------------------------------------]
G---5-5-5-5-5-5-5-5-------2-2--5-5-5-5-5-5-5-5----------]"It's hard to..."
D---5-5-5-5-5-5-5-5---2-2-2-2--5-5-5-5-5-5-5-5---5-5-5-5]
A---3-3-3-3-3-3-3-3---2-2-0-0--3-3-3-3-3-3-3-3---5-5-5-5]
E---------------------0-0------------------------3-3-3-3]

Thats about it, I'm not dead sure about the amount of strumming for the bridge, but if 
listen to the song, you'll get it.
Comments