New Found Glory - Hit Or Miss Chords & Tabs

 

Hit Or Miss Chords & Tabs

New Found Glory Chords & Tabs

Version: 9 Type: Tab 0 ratings
1 star 2 stars 3 stars 4 stars 5 stars
comments

Hit Or Miss Tab

   
Hit Or Miss - New Found Glory

Intro - Distorted
E|---------------------------------|
B|---------------------------------|
G|---------------------------------|
D|-9-9--9--------------------------|
A|-x-x--x-9-9--9-11-11--11-5-5--5--|
E|-7-7--7-7-7--7--9--9---9-7-7—-7--|
	Repeat 6 times

Then finish with this:
E|--------|
B|--------|
G|--------|
D|-9------|
A|-x-9-7--|
E|-7-7-5--|


E|-------------------------------------|
B|-------------------------------------|
G|-------------------------------------|
D|-------------------------------------|
A|-----2-----2-----9-----9----11----11-|
E|-x-x-0-x-x-0-x-x-7-x-x-7-x-x-9-x-x-9-|

E|-----------------------------------------------------|
B|-----------------------------------------------------|
G|-----------------------------------------------------|
D|-----------------------------6-----6-----9-9-9-9-9-9-|
A|-----2-----2-----9-----9-----4-x-x-4-x-x-x-x-x-x-x-x-|
E|-x-x-0-x-x-0-x-x-7-x-x-7-x-x-------------7-7-7-7-7-7-|


E|--------------------------------------------------|
B|--------------------------------------------------|
G|--------------------------------------------------|
D|--------------------------6-6-6-6-6-6-------------|
A|-2-2-2-2-2-2--9-9-9-9-9-9-4-4-4-4-4-4-9-9-9-9-9-9-|
E|-0-0-0-0-0-0--7-7-7-7-7-7-------------7-7-7-7-7-7-|

E|------------------------------------------------------|
B|------------------------------------------------------|
G|------------------------------------------------------|
D|--------------------------6-6-6-6-6-6/9-9-9-9-9-9-9-9-|
A|-2-2-2-2-2-2--9-9-9-9-9-9-4-4-4-4-4-4/7-7-7-7-7-7-7-7-|
E|-0-0-0-0-0-0--7-7-7-7-7-7-----------------------------|

[ Tab from: http://www.guitartabs.cc/tabs/n/new_found_glory/hit_or_miss_tab_ver_9.html ]
E|---------------------------------------------------|
B|---------------------------------------------------|
G|-----9-----------6----7*------9--------------------|
D|-----9-----9-----6--7*--------9-----9-----7--------|
A|-----7-----9-----4-7*---------7-----9-----7--------|
E|-x-x---x-x-7-x-x----------x-x---x-x-7-x-x-5--------|

E|---------------------------------|
B|---------------------------------|
G|---------------------------------|
D|-9-9--9--------------------------|
A|-x-x--x-9-9--9-11-11--11-5-5--5--|
E|-7-7--7-7-7--7--9--9---9-7-7—-7--|
	Repeat 6 times

And its ends on
E|--------|
B|--------|
G|--------|
D|-9------|
A|-x-9-7--|
E|-7-7-5--|


E|----------------------------------------------------|
B|----------------------------------------------------|
G|----------------------------------------------------|
D|---------------------------6-6--6-6--6--------------|
A|-2-2--2-2--2--9-9--9-9--9--4-4--4-4--4--9-9--9-9--9-|
E|-0-0--0-0--0--7-7--7-7--7---------------7-7--7-7--7-|
	Repeat 3 times
	Then…
E|----------------------------------------------------|
B|----------------------------------------------------|
G|----------------------------------------------------|
D|---------------------------6-6--6-6--6—------6~--9~-|
A|-2-2--2-2--2--9-9--9-9--9--4-4--4-4--4--9~---4~--7~-|
E|-0-0--0-0--0--7-7--7-7--7---------------7~----------|

Bass Solo

Then…
E|---------------------------------|
B|---------------------------------|
G|---------------------------------|
D|-9-9--9--------------------------|
A|-x-x--x-9-9--9-11-11--11-5-5--5--|
E|-7-7--7-7-7--7--9--9---9-7-7—-7--|
	Repeat 6 times

And its ends on
E|--------|
B|--------|
G|--------|
D|-9------|
A|-x-9-7--|
E|-7-7-5--|

This Sounds best but I’ll let u decide
Comments