New Found Glory - Hit Or Miss Chords & Tabs

 

Hit Or Miss Chords & Tabs

New Found Glory Chords & Tabs

Version: 8 Type: Tab 0 ratings
1 star 2 stars 3 stars 4 stars 5 stars
comments

Hit Or Miss Tab

   
Artist:  New Found Glory
Track: Hit Or Miss
Album: New Found Glory
Tabbed By Mark Brown E-mail markusbrownus2@hotmail.com
Standard Tuning  E A D G B E

x-palm mute

X-mute string from ringing


Intro  Guitar 1
e------------------|
B------------------|
G-9----------------|
D-9---9---11---7---|
A-7---9---11---7---|
E-----7----9---5---|

Intro Guitar 2
e--------------|
B--------------|
G-9~-----------|
D-9~-----------|
A-7~-----------|
E--------------|
Then Pleck Slide
Enter after guitar 1 has played intro 2x

Main Riff Both Guitars 2x
e------------------|
B------------------|
G-9----------------|
D-9---9---11---7---|
A-7---9---11---7---|
E-----7----9---5---|

Guitar 2 
e-------------------|----------------|
B-------------------|----------------|
G-9---11----13---11-|--9-------------|
D-9---11----13---11-|--9---9----7~---|
A-7----9----11----9-|--7---9----7~---|
E-------------------|------7----5~---|

Guitar 1
e-------------|
B-------------|
G-------------|
D----9--------|
A-7-----7-----|
E-------------|

Verse Both Guitars                                        on 2nd time
e--------------------------------------------------------|-----------|
B--------------------------------------------------------|-----------|
G--------------------------------------------------------|-----------|
D-x-x-2-x-x-2-x-x-9-x-x-9-x-x-11-x-x-11-x-x-7-x-x-7------|-9-9-9-9-9-|
A-x-x-2-x-x-2-x-x-9-x-x-9-x-x-11-x-x-11-x-x-7-x-x-7------|-9-9-9-9-9-|
E-x-x-0-x-x-0-x-x-7-x-x-7-x-x--9-x-x--9-x-x-5-x-x-5------|-7-7-7-7-7-|

Verse part 2                               on 1st         on 2nd
e-----------------------------|-----------|---------------|
B-----------------------------|-----------|---------------|
G-----------------------------|-----------|-9-9-9-9-9-9-9-|
D-2-2-2-2-9-9-9-9-11-11-11-11-|-9-9-9-9---|-9-9-9-9-9-9-9-|
A-2-2-2-2-9-9-9-9-11-11-11-11-|-9-9-9-9---|-7-7-7-7-7-7-7-|
E-0-0-0-0-7-7-7-7--9--9--9--9-|-7-7-7-7---|---------------|

Pre-Chorus 
Both Guitars  4x       guitar 2 
e---------------|---------------------|----------------|
B---------------|---------------------|----------------|
G-x-x-9-x-x-9---|---------------------|-9--------------|
D-x-x-9-x-x-9---|------------9-9------|-9---9---7~-----|
A-x-x-7-x-x-7---|------7-7-7-----7-7--|-7---9---7~-----|
E---------------|---------------------|-----7---5~-----|

Chorus 
Both Guitars 2x
e------------------|
B------------------|
G-9----------------|
D-9---9---11---7---|
A-7---9---11---7---|
E-----7----9---5---|

Guitar 2
e-------------------|----------------|
B-------------------|----------------|
G-9---11----13---11-|--9-------------|
D-9---11----13---11-|--9---9----7~---|
A-7----9----11----9-|--7---9----7~---|
E-------------------|------7----5~---|

Guitar 1
e-------------|
B-------------|
G-------------|
D----9--------|
A-7-----7-----|
E-------------|
[ Tab from: http://www.guitartabs.cc/tabs/n/new_found_glory/hit_or_miss_tab_ver_8.html ]
Verse Both Guitars                                        on 2nd time
e--------------------------------------------------------|-----------|
B--------------------------------------------------------|-----------|
G--------------------------------------------------------|-----------|
D-x-x-2-x-x-2-x-x-9-x-x-9-x-x-11-x-x-11-x-x-7-x-x-7------|-9-9-9-9-9-|
A-x-x-2-x-x-2-x-x-9-x-x-9-x-x-11-x-x-11-x-x-7-x-x-7------|-9-9-9-9-9-|
E-x-x-0-x-x-0-x-x-7-x-x-7-x-x--9-x-x--9-x-x-5-x-x-5------|-7-7-7-7-7-|

Verse part 2                               on 1st         on 2nd
e-----------------------------|-----------|---------------|
B-----------------------------|-----------|---------------|
G-----------------------------|-----------|-9-9-9-9-9-9-9-|
D-2-2-2-2-9-9-9-9-11-11-11-11-|-9-9-9-9---|-9-9-9-9-9-9-9-|
A-2-2-2-2-9-9-9-9-11-11-11-11-|-9-9-9-9---|-7-7-7-7-7-7-7-|
E-0-0-0-0-7-7-7-7--9--9--9--9-|-7-7-7-7---|---------------|

Pre-Chorus 
Both Guitars  4x       guitar 2 
e---------------|---------------------|----------------|
B---------------|---------------------|----------------|
G-x-x-9-x-x-9---|---------------------|-9--------------|
D-x-x-9-x-x-9---|------------9-9------|-9---9---7~-----|
A-x-x-7-x-x-7---|------7-7-7-----7-7--|-7---9---7~-----|
E---------------|---------------------|-----7---5~-----|

Chorus 
Both Guitars 2x
e------------------|
B------------------|
G-9----------------|
D-9---9---11---7---|
A-7---9---11---7---|
E-----7----9---5---|

Guitar 2
e-------------------|----------------|
B-------------------|----------------|
G-9---11----13---11-|--9-------------|
D-9---11----13---11-|--9---9----7~---|
A-7----9----11----9-|--7---9----7~---|
E-------------------|------7----5~---|

Guitar 1
e-------------|
B-------------|
G-------------|
D----9--------|
A-7-----7-----|
E-------------|

e-----------------------------------------------|
B-----------------------------------------------|
G-----------4-4-X-4-4-X-6-6-X-6-6-X-4-4-4-4-----|
D-2-2-X-2-2-4-4-X-4-4-X-6-6-X-6-6-X-4-4-4-4-----|
A-2-2-X-2-2-2-2-X-2-2-X-4-4-X-4-4-X-2-2-2-2-----|
E-0-0-X-0-0-------------------------------------|

e---------------------------------------------|
B---------------------------------------------|
G-----------4-4-X-4-4-X-6-6-X-6-6-X-2-2-2-2---|
D-2-2-X-2-2-4-4-X-4-4-X-6-6-X-6-6-X-2-2-2-2---|
A-2-2-X-2-2-2-2-X-2-2-X-4-4-X-4-4-X-0-0-0-0---|
E-0-0-X-0-0-----------------------------------|

e-----------------------------------------------|
B-----------------------------------------------|
G-----------4-4-X-4-4-X-6-6-X-6-6-X-4-4-4-4-----|
D-2-2-X-2-2-4-4-X-4-4-X-6-6-X-6-6-X-4-4-4-4-----|
A-2-2-X-2-2-2-2-X-2-2-X-4-4-X-4-4-X-2-2-2-2-----|
E-0-0-X-0-0-------------------------------------|

e-------------------------------------------|-----|
B-------------------------------------------|-----|
G-----------4-4-X-4-4-X-6-6-X-6-6-4-2-------|-----|
D-2-2-X-2-2-4-4-X-4-4-X-6-6-X-6-6-4-2-2~----|--2~-|
A-2-2-X-2-2-2-2-X-2-2-X-4-4-X-4-4-2-0-2~----|--2~-|
E-0-0-X-0-0---------------------------0~----|--0~-|
                                            pleck slide
Chorus 
Both Guitars 4x
e------------------|
B------------------|
G-9----------------|
D-9---9---11---7---|
A-7---9---11---7---|
E-----7----9---5---|

Guitar 2
e-------------------|----------------|
B-------------------|----------------|
G-9---11----13---11-|--9-------------|
D-9---11----13---11-|--9---9----7~---|
A-7----9----11----9-|--7---9----7~---|
E-------------------|------7----5~---|

Guitar 1
e-------------|
B-------------|
G-------------|
D----9--------|
A-7-----7-----|
E-------------|
Comments