New Found Glory - Hit Or Miss Chords & Tabs

 

Hit Or Miss Chords & Tabs

New Found Glory Chords & Tabs

Version: 7 Type: Tab 0 ratings
1 star 2 stars 3 stars 4 stars 5 stars
comments

Hit Or Miss Tab

By David Graham
dj.graham0@talk21.com
I tabbed this already but i thought i\'d finish the intro off
*VERY IMPORTANT* start with a downstroke followed by an upstroke.  Do this troughout the entire song

PART1.  in intro this is played 5 times and the rest of the song is made up of this pattern over and over again 
[ Tab from: http://www.guitartabs.cc/tabs/n/new_found_glory/hit_or_miss_tab_ver_7.html ]
 e--------------------------------------------------------
 B--------------------------------------------------------
 G--9-9-9---0-0-0---0--0--0----0-0-0----------------------
 D--9-9-9---9-9-9---11-11-11---7-7-7----------------------
 A--0-0-0---9-9-9---11-11-11---7-7-7----------------------
 E--7-7-7---7-7-7---9--9--9----5-5-5----------------------

PART2.  after part1 is played 5 times in the intro this is played once(this part only features in the intro)

 e--------------------------------------------------------
 B--------------------------------------------------------
 G--0-0---0-0-0---0--0--0---0-0-0--0-0---0---0------------
 D--7-7---9-9-9---11-11-11--9-9-9--7-7---9---7------------
 A--7-7---9-9-9---11-11-11--9-9-9--7-7---9---7------------
 E--5-5---7-7-7---9--9--9---7-7-7--5-5---7---5------------
Comments