New Found Glory - Hit Or Miss Chords & Tabs

 

Hit Or Miss Chords & Tabs

New Found Glory Chords & Tabs

Version: 2 Type: Tab 0 ratings
1 star 2 stars 3 stars 4 stars 5 stars
comments

Hit Or Miss Tab

ATRIST: NEW FOUND GLORY
SONG: HIT OR MISS
TABBED BY: MICHELLE GUSHIKEN

HERE'S THE TABS. THESE ARE THE *RIGHT* TABS!!!



-----------------------------------------------------------------------------------------------
-----------------------------------------------------------------------------------------------
----9---9--9--9----------------------------------------------------------------------------
----9---9--9--9----9---9--9--9---11---11--11--11--------7---7--7--7--------
----7---7--7--7----9---9--9--9---11---11--11--11--------7---7--7--7--------
-----------------------7---7--7--7----9----9-----9----9---------5---5--5--5--------
[ Tab from: http://www.guitartabs.cc/tabs/n/new_found_glory/hit_or_miss_tab_ver_2.html ]
----------------------------------------------------------------------------------------------
----------------------------------------------------------------------------------------------
----9---9--9--9----11-11-11-11-11--13---13--13---13------11-----------
----9---9--9--9----11-11-11-11-11--13---13--13---13------11-----------
----7---7--7---7----9---9---9--9----9---11---11--11---11------9-------------
----------------------------------------------------------------------------------------------

-------------------------------------------
-------------------------------------------
--9---------------------------------------
--9------9-----7-----7-----------------
--7------9-----7-----7-----------------
----------7-----5-----5-----------------
Comments