New Found Glory - Hit Or Miss Chords & Tabs

 

Hit Or Miss Chords & Tabs

New Found Glory Chords & Tabs

Version: 10 Type: Tab 0 ratings
1 star 2 stars 3 stars 4 stars 5 stars
comments

Hit Or Miss Tab

   
ARTIST: New Found Glory
     SONG: Hit or Miss
    ALBUM: New Found Glory
TABLATURE: Guitar
   TAB BY: Caspian Sawczak
**********
[Intro]
E---------------------------------------------------------
B---------------------------------------------------------
G-9-9--9-4-4--4-6-6--6-2-2--2-9-9--9-4-4--4-6-6--6-2-2--2-
D-9-9--9-4-4--4-6-6--6-2-2--2-9-9--9-4-4--4-6-6--6-2-2--2-
A---------------------------------------------------------
E---------------------------------------------------------
(play 3x)

E----------------------------------------------------
B-5-5--5-7-7--7-9-9--9-7-7--7-5----------------------
G----------------------------------4----2-------4----
D------------------------------------------2-------2-
A----------------------------------------------------
E----------------------------------------------------

[Verse]
E-----------------------------------------------------------------
B-----------------------------------------------------------------
G-----------------4-4-4-4-4-4-4-4-6-6-6-6-6-6-6-6-4-4-4-4-4-4-4-4-
D-2-2-2-2-2-2-2-2-4-4-4-4-4-4-4-4-6-6-6-6-6-6-6-6-4-4-4-4-4-4-4-4-
A-2-2-2-2-2-2-2-2-------------------------------------------------
E-----------------------------------------------------------------

E-----------------------------------------------------------------
B-----------------------------------------------------------------
G-----------------4-4-4-4-4-4-4-4-6-6-6-6-6-6-6-6-9-9-9-9-9-9-9-9-
D-2-2-2-2-2-2-2-2-4-4-4-4-4-4-4-4-6-6-6-6-6-6-6-6-9-9-9-9-9-9-9-9-
A-2-2-2-2-2-2-2-2-------------------------------------------------
E-----------------------------------------------------------------
(play 2x, palmute when needed)

E-----------------------------------------------------------------
B-----------------------------------------------------------------
G---------4-4-4-4-2-2-----4-4-------------4-4-4-4-2-2-----4-4-----
D-2-2-2-2-4-4-4-4-2-2-2-2-----2-2-2-2-2-2-4-4-4-4-2-2-2-2-----2-2-
A-2-2-2-2-------------------------2-2-2-2-------------------------
E-----------------------------------------------------------------
[ Tab from: http://www.guitartabs.cc/tabs/n/new_found_glory/hit_or_miss_tab_ver_10.html ]
E-----------------------------------------------------------------
B-----------------------------------------------------------------
G---------4-4-4-4-2-2-----4-4-------------4-4-4-4-2(let ring)-----
D-2-2-2-2-4-4-4-4-2-2-2-2-----2-2-2-2-2-2-4-4-4-4-2(let ring)-----
A-2-2-2-2-------------------------2-2-2-2-------------------------
E-----------------------------------------------------------------
(palmute when needed)

[Chorus]
E---------------------------------------------------------
B---------------------------------------------------------
G-9-9--9-4-4--4-6-6--6-2-2--2-9-9--9-4-4--4-6-6--6-2-2--2-
D-9-9--9-4-4--4-6-6--6-2-2--2-9-9--9-4-4--4-6-6--6-2-2--2-
A---------------------------------------------------------
E---------------------------------------------------------
(play 3x)

E---------------------------------
B---------------------------------
G-9-9-9-9-4-4-4-4-2-2-----4-4-----
D-9-9-9-9-4-4-4-4-2-2-2-2-----2-2-
A---------------------------------
E---------------------------------

E---------------------------------------------------------
B---------------------------------------------------------
G-9-9--9-4-4--4-6-6--6-2-2--2-9-9--9-4-4--4-6-6--6-2-2--2-
D-9-9--9-4-4--4-6-6--6-2-2--2-9-9--9-4-4--4-6-6--6-2-2--2-
A---------------------------------------------------------
E---------------------------------------------------------
(play 3x)

E-------------------------------
B-------------------------------
G-9-9-9-9-4-4-4-4-2--------4----
D-9-9-9-9-4-4-4-4-2---2-------2-
A-------------------------------
E-------------------------------

[Bridge]
E----------------------------------------------------
B----------------------------------------------------
G--------------4-4--4--4--4-6-6--6--6---4-4--4--4--4-
D-2-2--2--2--2-4-4--4--4--4-6-6--6--6---4-4--4--4--4-
A-2-2--2--2--2---------------------------------------
E----------------------------------------------------
(play 4x)

E---------------------------------------------------------
B---------------------------------------------------------
G---------------------------------------------------------
D-2(let ring)---------------------------------------------
A-2(let ring)---------------------------------------------
E---------------------------------------------------------
(play 2x)

***************
SONG STRUCTURE:
***************
Intro
Verse
Chorus
Verse
Chorus
Bridge
Chorus
***************
afireinside_85@hotmail.com
Comments