New Found Glory - Hit Or Miss Chords & Tabs

 

Hit Or Miss Chords & Tabs

New Found Glory Chords & Tabs

Version: 1 Type: Tab 0 ratings
1 star 2 stars 3 stars 4 stars 5 stars
comments

Hit Or Miss Tab

#----------------------------------PLEASE NOTE---------------------------------#
#This file is the author's own work and represents their interpretation of the #
#song. You may only use this file for private study, scholarship, or research. #
#------------------------------------------------------------------------------#
#

Song Title: Hit or Miss
Band: New Found Glory
Album: Nothing Gold Can Stay
Last Revised: 10-13-97 21:37 PM
Tabbed By: Brian Mora 
	   Bukabuka28@hotmail.com

Intro

Rhythm (Electric)
e|------------------------|-------------------|------------------------|
B|------------------------|-------------------|------------------------|
G|---9-----------------X2-|--9----------------|---9--------------------|
D|---9---9---11---7-------|--9---9---11---7---|---9---9---11---7-------|
A|---7---9---11---7-------|--7---9---11---7---|---7---9---11---7-------|
E|-------7----9---5-------|------7----9---5---|-------7----9---5-------|
Lead (Distortion)
e|------------------------|-------------------|------------------------|
B|------------------------|-------------------|------------------------|
G|---------------------X2-|--9----------------|---9hold---------9hold--|
D|------------------------|--9---------hold---|----------9hold---------|
A|------------------------|--7----------------|------------------------|
E|------------------------|-------------------|------------------------|

Uh ... Thing between the Intro and Verse

Rhythm
e|------------------------|--------------------|---------------------|
B|------------------------|--------------------|---------------------|
G|---9-----------------X2-|--9---11---14---16--|---9-h-----h-----h---|
D|---9---9---11---7-------|--9---11---14---16--|---9-o---9-o---7-o---|
A|---7---9---11---7-------|--7----9---12---14--|---7-l---9-l---7-l---|
E|-------7----9---5-------|--------------------|-----d---7-d---5-d---|
Lead
e|------------------------|--------------------|---------------------|
B|------------------------|--------------------|---------------------|
G|---9-----------------X2-|---9----------------|---9-h-----h-----h---|
D|---9---9---11---7-------|---9---9---11---7---|---9-o---9-o---7-o---|
A|---7---9---11---7-------|---7---9---11---7---|---7-l---9-l---7-l---|
E|-------7----9---5-------|-------7----9---5---|-----d---7-d---5-d---|

Verse 1 (I'm going to tab the strumming order in this one)
[ Tab from: http://www.guitartabs.cc/tabs/n/new_found_glory/hit_or_miss_tab.html ]
Both
e|-------------------------------------------|------------------------------------------------------|
B|-------------------------------------------|------------------------------------------------------|
G|----99--9--------------------------------X4|---9-h-----h------h-----h----------9-h-----h------h---|
D|----99--9----99--9----1111--11----77--7----|---9-o---9-o---11-o---9-o----99----7-o---9-o---11-o---|
A|----77--7----99--9-----9-9--11----77--7----|---7-l---9-l---11-l---9-l----99----7-l---9-l---11-l---|
E|-------------77--7-----9-9---9----55--5----|-----d---7-d----9-d---7-d----77------d---7-d----9-d---|
      PM       PM        PM         PM            

Verse 2 (I'm going to tab the strumming order in this one)

Both
e|------------------------------------------------|
B|------------------------------------------------|
G|---99--9-------------------------------------X4-|
D|---99--9----99--9----1111--11----77------7------|
A|---77--7----99--9-----9-9--11----77----5--------|
E|------------77--7-----9-9---9----55--5----------|
     PM       PM        PM         PM

Chorus

Rhythm
e|------------------------|--------------------|---------------------|
B|------------------------|--------------------|---------------------|
G|---9-----------------X2-|--9---11---14---16--|---9-h-----h-----h---|
D|---9---9---11---7-------|--9---11---14---16--|---9-o---9-o---7-o---|
A|---7---9---11---7-------|--7----9---12---14--|---7-l---9-l---7-l---|
E|-------7----9---5-------|--------------------|-----d---7-d---5-d---|
Lead
e|------------------------|--------------------|---------------------|
B|------------------------|--------------------|---------------------|
G|---9-----------------X2-|---9----------------|---9-h-----h-----h---|
D|---9---9---11---7-------|---9---9---11---7---|---9-o---9-o---7-o---|
A|---7---9---11---7-------|---7---9---11---7---|---7-l---9-l---7-l---|
E|-------7----9---5-------|-------7----9---5---|-----d---7-d---5-d---|

Breakdown 

Rhythm
e|--------------------------|--------------------------|------------------------------|
B|--------------------------|--------------------------|------------------------------|
G|-----------------------X3-|---------------------h----|---9-L-F-----9----------------|
D|---2----9----11----9------|---2----9----11----9-o----|---9-e-a-----9---9---11---7---|
A|---2----9----11----9------|---2----9----11----9-l----|---7-t-d-----7---9---11---7---|
E|---0----7-----9----7------|---0----7-----9----7-d----|-------e---------7----9---5---|
Lead                                                                 ^-----PM-----^
e|--------------------------|--------------------------|------------------------------|
B|--------------------------|--------------------------|------------------------------|
G|-----------------------X3-|---------------------9-h--|---9-L-F-----9----------------|
D|---2----9----11----9------|---2----9----11------9-o--|---9-e-a-----9---9---11---7---|
A|---2----9----11----9------|---2----9----11------7-l--|---7-t-d-----7---9---11---7---|
E|---0----7-----9----7------|---0----7-----9--------d--|-------e---------7----9---5---|
                                                                     ^-----PM-----^

Order:
Intro
Uh ... Thing between Intro and Verse
Verse 1
Verse 2
Chorus
Verse 1
Verse 2
Chorus
Breakdown
Chorus X2

Any questions email me at Bukabuka28@hotmail.com . I tried putting as much detail into this tab as I
could so ya, I worked hard on it.
Comments