New Found Glory - Hit Or Miss Chords & Tabs

 

Hit Or Miss Chords & Tabs

New Found Glory Chords & Tabs

Version: 4 Type: Bass Tab 0 ratings
1 star 2 stars 3 stars 4 stars 5 stars
comments

Hit Or Miss Bass Tab

intro
G---------------------                      G-------
D---------------------                      D-------
A-77-7----44-4--------6x  on last one play= A-7~----
E-----77-7----55-5----                      E---7~5~

verse
G-----------------------------------------------------------------
D-----------------------------------------------------------------
A---------222222224444444422222222--------222222224444444477777777 2x
E-00000000------------------------00000000------------------------

pre-chorus "remeber the time we wrote our names up..."
G-------------------------------------------------
D-------------------------------------------------
A-777---444~~~777---------777---444~~~77~---------
E----777---------777555~~~---777---------77~5~~~--
just listen to the song to get this part right.
[ Tab from: http://www.guitartabs.cc/tabs/n/new_found_glory/hit_or_miss_btab_ver_4.html ]
chorus
G-------------------------------------------------------
D-------------------------------------------------------
A-77-7----44-4----77-7----44-4----77-7----44-4----7~---- 2x
E-----77-7----55-5----77-7----55-5----77-7----55-5--7~5~

verse ^

pre-chorus ^

chorus ^

bridge                                                        
G---------------------------------------------------------   *-----
D--------------------------------------------------------- 2x*-----
A--------22-222244-444422-2222-------22-222244-444422-224~   *---2~
E-00-0000---------------------00-0000---------------------   *-0~--
                                                             on the end play
                                                             this

Solo
G-----------------
D-----------------
A-77-7----44-4---- 4x
E-----77-7----55-5

then just play the chorus til the end of the song
this is my first tap so gimme a break if its not perfect.
Comments