New Found Glory - Hit Or Miss Acoustic Chords & Tabs

 

Hit Or Miss Acoustic Chords & Tabs

New Found Glory Chords & Tabs

Version: 1 Type: Tab 0 ratings
1 star 2 stars 3 stars 4 stars 5 stars
comments

Hit Or Miss Acoustic Tab

   
-------------------------------------------------------------------------------
			     New Found Glory - Hit Or Miss (Acoustic)
-------------------------------------------------------------------------------

Standard tuning

Played with one guitar

| /  slide up
| \  slide down
| h  hammer-on
| p  pull-off
| ~  vibrato
| *  Palm mute


	

INTRO (0:00)-(0:25)

e|-------------------------------------------------------------------------------|
B|-------------------------------------------------------------------------------|
G|-999-------666--------------9999--------6666-----------------------------------|
D|-999--999--666--777--x3-----9999--9999--6666--7777-----------------------------|
A|-777--999--444--777---------7777--9999--4444--7777-----------------------------|
E|------777-------555---------------7777--------5555-----------------------------|
                              ****  ****  ****  ****
e|-------------------------------------------------------------------------------|
B|-------------------------------------------------------------------------------|
G|-999-------666-----------999--11-11-11--13-13-13--11-11-11--999----------------|
D|-999--999--666--777--x2--999--11-11-11--13-13-13--11-11-11--999-999-7---7--777-|
A|-777--999--444--777------777---9--9--9--11-11-11---9--9--9--777-999-7---7--777-|
E|------777-------555---------------------------------------------777-5---5--555-|
                              

VERSE (0:25)-(0:47)

e|-----------------------------------------------------------------------|
B|-----------------------------------------------------------------------|
G|-------------44-4-44-4--66-6-66-6--44-4-44-4---------------------------|
D|--22-2-22-2--44-4-44-4--66-6-66-6--44-4-44-4---------------------------|
A|--22-2-22-2--22-2-22-2--44-4-44-4--22-2-22-2---------------------------|
E|--00-0-00-0------------------------------------------------------------|
    **   **    **   **    **   **    **   **    

e|-----------------------------------------------------------------------|
B|-----------------------------------------------------------------------|
G|-------------44-4-44-4--66-6-66-6---99999999---------------------------|
D|--22-2-22-2--44-4-44-4--66-6-66-6---99999999---------------------------|
A|--22-2-22-2--22-2-22-2--44-4-44-4---77777777---------------------------|
E|--00-0-00-0------------------------------------------------------------|
    **   **    **   **    **   **        
|---------------------------------|
|---------------------------------|
|--------4444444-6666666-99999999-|
|-222222-4444444-6666666-99999999-|x2
|-222222-2222222-4444444-77777777-|
|-000000--------------------------|
  

PRE CHORUS (0:48)-(0:58)

e|------------------------|--------------------------------------------|
B|------------------------|--------------------------------------------|
G|-99-99-------66-6-66666-|----99-99-------66-6-66666-999--------------|
D|-99-99-99-99-66-6-66666-|x2--99-99-99-99-66-6-66666-999-999-7--------|
A|-77-77-99-99-44-4-44444-|----77-77-99-99-44-4-44444-777-999-7--------|
E|-------77-77------------|----------77-77----------------777-5--------|
   **    **    **              **    **    **     

   
CHORUS (0:59)-(1:22)

e|-------------------------------------------------|
B|-------------------------------------------------|
G|--999-------666-----------9-9-9------------------|
D|--999--999--666--777--x3--9-9-9-9-9-9--777777----|x2
A|--777--999--444--777------7-7-7-9-9-9--777777----|
E|-------777-------555------------7-7-7--555555----|


VERSE (1:23)-(1:45)

e|--------------------------------------------------------------------------------|
B|--------------------------------------------------------------------------------|
G|-------------44-4-44-4--66-6-66-6--44-4-44-4------------------------------------|
D|--22-2-22-2--44-4-44-4--66-6-66-6--44-4-44-4------------------------------------|
A|--22-2-22-2--22-2-22-2--44-4-44-4--22-2-22-2------------------------------------|
E|--00-0-00-0---------------------------------------------------------------------|
    **   **    **   **    **   **    **   **    
[ Tab from: http://www.guitartabs.cc/tabs/n/new_found_glory/hit_or_miss_acoustic_tab.html ]
e|--------------------------------------------------------------------------------|
B|--------------------------------------------------------------------------------|
G|-------------44-4-44-4--66-6-66-6---99999999------------------------------------|
D|--22-2-22-2--44-4-44-4--66-6-66-6---99999999------------------------------------|
A|--22-2-22-2--22-2-22-2--44-4-44-4---77777777------------------------------------|
E|--00-0-00-0---------------------------------------------------------------------|
    **   **    **   **    **   **        
|---------------------------------|
|---------------------------------|
|--------4444444-6666666-99999999-|
|-222222-4444444-6666666-99999999-|x2
|-222222-2222222-4444444-77777777-|
|-000000--------------------------|


Pre Chorus (1:46)-(1:56)

e|------------------------|--------------------------------------------|
B|------------------------|--------------------------------------------|
G|-99-99-------66-6-66666-|----99-99-------66-6-66666-999--------------|
D|-99-99-99-99-66-6-66666-|x2--99-99-99-99-66-6-66666-999-999-7--------|
A|-77-77-99-99-44-4-44444-|----77-77-99-99-44-4-44444-777-999-7--------|
E|-------77-77------------|----------77-77----------------777-5--------|
   **    **    **              **    **    **     


Chorus (1:57)-(2:19)

e|-------------------------------------------------|
B|-------------------------------------------------|
G|--999-------666-----------9-9-9------------------|
D|--999--999--666--777--x3--9-9-9-9-9-9--777777----|
A|--777--999--444--777------7-7-7-9-9-9--777777----|
E|-------777-------555------------7-7-7--555555----|

e|-----------------------------------------------------|
B|-----------------------------------------------------|
G|--999-------666-----------9-9-9----------------------|
D|--999--999--666--777--x3--9-9-9-9-9-9--7-7-----------|
A|--777--999--444--777------7-7-7-9-9-9--7-7-----------|
E|-------777-------555------------7-7-7--5-5-pickslide-|



INTERLUDE (2:19)-(2:43)

e|------------------------------------------------|
B|------------------------------------------------|
G|----------444-44--666-66--444-44----------------|
D|--222-22--444-44--666-66--444-44----------------|x3
A|--222-22--222-22--444-44--222-22----------------|
E|--000-00----------------------------------------|

e|------------------------------------------------|
B|------------------------------------------------|
G|----------444-44--666-66--9---------------------|
D|--222-22--444-44--666-66--9--9--7---------------|
A|--222-22--222-22--444-44--7--9--7---------------|
E|--000-00---------------------7--5---------------|

           (2:43)-(2:51)  
e|------------------------------------------------|
B|------------------------------------------------|
G|------------------------------------------------|
D|------------------------------------------------|x3
A|------------------------------------------------|
E|-0-12-12--0-7-7--0-9-9--0-5-5-------------------|


OUTRO (2:52)-(3:16)

e|------------------------------------------------|
B|------------------------------------------------|
G|--9999--------6666------------------------------|
D|--9999--9999--6666--7777------------------------|
A|--7777--9999--4444--7777------------------------|
E|--------7777--------5555------------------------|
    ****  ****  ****  ****

e|-------------------------------------------------|
B|-------------------------------------------------|
G|--999-------666-----------9-9-9------------------|
D|--999--999--666--777--x3--9-9-9-9-9-9--7777777---|
A|--777--999--444--777------7-7-7-9-9-9--7777777---|
E|-------777-------555------------7-7-7--5555555---|

e|-------------------------------------------------|
B|-------------------------------------------------|
G|--999-------666-----------9-9-9------------------|
D|--999--999--666--777--x3--9-9-9-9-9-9--7---------|
A|--777--999--444--777------7-7-7-9-9-9--7---------|
E|-------777-------555------------7-7-7--5---------|




LYRICS

The needle on my record player has been wearing thin
This record has been playing since the day you've been with him

No more long rides home
No more of your station
I didn't like it anyway

Remember the time we wrote our names up on the wall?
Remember the time we realized 'Thriller' was our favorite song?

Have I waited too long?
Have I found that someone?
Have I waited too long to see you? 

Have I waited too long?
Have I found that someone?
Have I waited too long to see you? 

Maybe it's for the best
Maybe it's not for anything
It wouldn't be so bad to take this right from me

No more long rides home
No more of your station
I didn't like it anyway

Remember the time we wrote our names up on the wall?
Remember the time we realized 'Thriller' was our favourite song?

Have I waited too long? 
Have I found that someone?
Have I waited too long to see you? 

Have I waited too long? 
Have I found that someone?
Have I waited too long to see you? 

How many times I've tried
It's simple to you, so simple to lie
How many times I've tried
Blatant mistakes of your design

How many times I've tried
It's simple to you, so simple to lie
Blatant mistakes of your design

How many times I've tried
It's simple to you, so simple to lie
Blatant mistakes of your design

Have I waited too long 
Have I found that someone 
Have I wanted too long to see you?

I've had so many chances
Turn my back and I ran away
I've had so many chances 
to see you
Comments