New Found Glory - Heaven Chords & Tabs

 

Heaven Chords & Tabs

New Found Glory Chords & Tabs

Version: 1 Type: Tab 0 ratings
1 star 2 stars 3 stars 4 stars 5 stars
comments

Heaven Tab

   
Artist-New Found Glory
Title-Heaven

PLAY HALF STEP DOWN

INTRO

D|---------------
A|-5-------------
E|-3-(PICKSLIDE)-

VERSE

D|----------------------------5555555555555555555----777777-
A|-55555555555---5555555555---3333333333333333333----555555- X2 
E|-33333333333---7777777777---------------------------------

PRECHORUS

D|-5555555-77777777-------------------5555555-7777777--12-12-5
A|-3333333-55555555-555555555555555---3333333-5555555--10-9--3
E|------------------333333333333333---------------------------

CHORUS

D|------777-5-5555555-
A|-5555-555-3-3333333-
E|-3333---------------

the lead plays this fill after a few C chords

E|-/8-7---
B|-----8v-
G|--------

SOLO

this is basically the pentatonic scale on the 14th fret.
[ Tab from: http://www.guitartabs.cc/tabs/n/new_found_glory/heaven_tab.html ]
E|---------------------------------------------------------------------
B|-14-14-14v-----------------------------------------------------14h17-
G|-----------16p14-----------------------------------------14h16-------
D|-----------------16p14------------------------------14h16------------
A|-----------------------16p15p14----------------14h16-----------------
E|--------------------------------17-14-12-14-17-----------------------

E|-21-21-21v-16--------------------------------------------------------
B|--------------17-14-15-----------------------------------------------
G|-----------------------14--------------------------------------------
D|-------------------------14------------------------------------------
A|----------------------------17-16-12h14p12-12h14p12v----------14h16--
E|-----------------------------------------------------12-14-17--------

E|-------------------14v-14------------------------
B|------------14h17v--------17-14------------------
G|------14h16--------------------14----------------
D|-14h16---------------------------14--------------
A|-----------------------------------17-16-12------
E|-------------------------------------------12-10-

END CHORUSES

Play the chorus first 2 frets higher, then 4 frets higher from the original position.

The plam muted chords while jordan is woo-ohing is 

A|-777777777-|-----999999999-
E|-444444444-|-and-666666666-

thats it the solo isnt exact but it sounds very good. peace
Comments