New Found Glory - Head On Collision Chords & Tabs

 

Head On Collision Chords & Tabs

New Found Glory Chords & Tabs

Version: 7 Type: Tab 0 ratings
1 star 2 stars 3 stars 4 stars 5 stars
comments

Head On Collision Tab

Author/Artist: New Found Glory
Title: Head On Collision
Album: Sticks And Stones
Transcribed by: Ted Cybulski
Email: breakinbearx@hotmail.com

Hey, I couldn't find a tab for this song, and i happened to really like it.
It's my first time tabbing, but i think i have it pretty much like it is.
I'm not going to say its perfect, but i think its pretty good.
If you think something is wrong, leave a comment...

-|---------------------------------|------------------------------------------
-|---------------------------------|------------------------------------------
-|---------------------------------|-2--2--4--4--7--7--7--7-------------------
-|---------------------------------|-2--2--4--4--7--7--7--7--x2---------------
-|-5-4-5-7-5-4-5-4-5-4-5-7-5-4-5-4-|-0--0--2--2--5--4--5--4-------------------
-|---------------------------------|------------------------------------------
 Intro   (played in places all through the song)                              
[ Tab from: http://www.guitartabs.cc/tabs/n/new_found_glory/head_on_collision_tab_ver_7.html ]
-|---------------------|------------|-----------------------------------------
-|---------------------|------------|-----------------------------------------
-|-2--2----------------|------------|-----------------------------------------
-|-2--2-----4--4---x4--|--2---x16---|-----------------------------------------
-|-0--0-----4--4-------|--2---------|-----------------------------------------
-|----------2--2-------|--0---------|-----------------------------------------
 Verse                  Pre-Chorus                                            

-|-------------------------------|--------------------------------------------
-|-------------------------------|--------------------------------------------
-|-0--0-----4--4-----7--7--7--7--|--------------------------------------------
-|-2--2-----4--4-----7--7--7--7--|--x4----------------------------------------
-|-2--2-----2--2-----5--4--5--5--|--------------------------------------------
-|-------------------------------|--------------------------------------------
 Chorus                                                                       

-|-------------0--------------------------------------------------|-----------
-|---------2-----------2---2h3p2----------------------------------|-----------
-|-----2-----------2-----------------2---4---2-------1-2-----1-2--|-x4--------
-|-------------------------------2-2---0---0-----0-0-----2-2------|-----------
-|-0-0---0---0---0---0---0----------------------------------------|-----------
-|----------------------------------------------------------------|-----------
 The Incredibly Cool Solo                                                     


Thats it... I didn't include the strumming rhythms... tough to tab, and you can 
figure em out pretty easily The Solo and the Intro are played sporadically through 
the song, listen to the song and you'll here where to put em
Comments