New Found Glory - Head On Collision Chords & Tabs

 

Head On Collision Chords & Tabs

New Found Glory Chords & Tabs

Version: 6 Type: Tab 0 ratings
1 star 2 stars 3 stars 4 stars 5 stars
comments

Head On Collision Tab

intro:
------------------------------------------------------------------------------------------

------------------------------------------------------------------------------------------

------------------------------------------------------------------------------------------

------------------------------------------------------------------------------------------

----7-6-7-9-7-6-7-6---7-6-7-9-7-6-7-6------------------------------------------------
------------------------------------------------------------------------------------------

------------------------------------------------------------------------------------------
------------------------------------------------------------------------------------------
-------4---4--------6---6--------9-9-9---8-8-8---9-9-9---8-8-8---9-8-9-8-----------
-------4---4--------6---6--------9-9-9---9-9-9---9-9-9---9-9-9---9-9-9-9-----------
-------2---2--------4---4--------7-7-7---7-7-7---7-7-7---7-7-7---7-7-7-7-----------
------------------------------------------------------------------------------------------
						repeat
verse:
------------------------------------------------------------------------------------------
------------------------------------------------------------------------------------------

-------4----4--4----------9-----9--9-------4----4--4-------9---9--9-------------------
-------4----4--4----------9-----9--9-------4----4--4-------9---9--9-------------------
-------2----2--2----------7-----7--7-------2----2--2-------7---7--7-------------------
------------------------------------------------------------------------------------------
						repeat

pre-chours:
------------------------------------------------------------------------------------------

------------------------------------------------------------------------------------------
-------9-9-9-9-9-9-9-9-9-9-9-9-9-9-9-9-9---------------------------------------------

-------9-9-9-9-9-9-9-9-9-9-9-9-9-9-9-9-9---------------------------------------------
[ Tab from: http://www.guitartabs.cc/tabs/n/new_found_glory/head_on_collision_tab_ver_6.html ]
-------7-7-7-7-7-7-7-7-7-7-7-7-7-7-7-7-7---------------------------------------------

------------------------------------------------------------------------------------------

chours:
------------------------------------------------------------------------------------------
------------------------------------------------------------------------------------------

--4--4---6--6------9-9-9-8-8-8-9-9-9-8-8-8-------------------------------------------

--4--4---6--6------9-9-9-8-8-8-9-9-9-8-8-8-------------------------------------------

--2--2---4--4------7-7-7-7-7-7-7-7-7-7-7-7-------------------------------------------

------------------------------------------------------------------------------------------
						repeat

interlude:
------------------------------------------------------------------------------------------

------------------------------------------------------------------------------------------

----------------------------------11------------------------------------------------------

------------9------11------9----------9---11---8/9-----9--11---9---8/9---8/9----------
------------------------------------------------------------------------------------------

------------------------------------------------------------------------------------------
						repeat

then:

------------------------------------------------------------------------------------------

------------------------------------------------------------------------------------------

--------------9---9---9---9---9---9---9---9---------------------------------------------
--------------9---9---9---9---9---9---9---9-----8/9---8/9------------------------------

--------------7---7---7---7---7---7---7---7---------------------------------------------

------------------------------------------------------------------------------------------	

						repeat

the pre chours then chours then end the song with -------------------
				   -------------------
				   -----4------------
				   -----4------------
				   -----2------------
				  -------------------
Comments