New Found Glory - Head On Collision Chords & Tabs

 

Head On Collision Chords & Tabs

New Found Glory Chords & Tabs

Version: 3 Type: Tab 0 ratings
1 star 2 stars 3 stars 4 stars 5 stars
comments

Head On Collision Tab

   
	Artist: New found Glory
	 Track: Head on Collision
     Tabbed By: Dorito


		**This Song Is Played In Drop-D Tuning**


Intro 
Lead:
e|------------------------------------|
B|------------------------------------|
G|------------------------------------|
D|------------------------------------|
A|--5-4-5-7-5-4-5-4---5-4-5-7-5-4-5-4-|
D|------------------------------------|


Intro 2/Chorus
rhythm & Lead:
e|-------------------------------|
B|-------------------------------|
G|--------------7776667776666666-|
D|-77777-9-9999-7777777777777777-|
A|-77777-9-9999-5555555555555555-|
D|-77777-9-9999------------------|


Verse
Rhythm & Lead(clean)
e|-------------------------------|
B|-------------------------------|
G|-------------------------------|
D|-7---7------------4---4--------|x4
A|-7---7------------4---4--------|
D|-7---7------------4---4--------|


pre chorus
rhythm & Lead:
e|----------------------------------|
B|----------------------------------|
G|-99999999999999999999999999999999-|
D|-99999999999999999999999999999999-|
A|-77777777777777777777777777777777-|
D|----------------------------------|

[ Tab from: http://www.guitartabs.cc/tabs/n/new_found_glory/head_on_collision_tab_ver_3.html ]
Chorus
Lead:
e|------------------------------------------------------------------------------|
B|------------------------------------------------------------------------------|
G|--------------7776667776666666------------------------------------------------|
D|-77777-9-9999-7777777777777777-77777-9-9999-----------------------------------|
A|-77777-9-9999-5555555555555555-77777-9-9999-5-4-5-7-5-4-5-4---5-4-5-7-5-4-5-4-|
D|-77777-9-9999------------------77777-9-9999-----------------------------------|

Rhythm:
e|-------------------------------------------------------------|
B|-------------------------------------------------------------|
G|--------------7776667776666666--------------7776667776666666-|
D|-77777-9-9999-7777777777777777-77777-9-9999-7777777777777777-|
A|-77777-9-9999-5555555555555555-77777-9-9999-5555555555555555-|
D|-77777-9-9999------------------77777-9-9999------------------|

verse		x1
pre chorus	x1
chorus		x1

Interlude
Lead:
e|-------------------------------------------------------|
B|-----------5-------------------5-------------5-------5-|
G|------6--------6--6h7p6----------6---6-----------------|
D|----7---7----7--------------7------7-------7-------7---|x4
A|0-0---------------------2-2------------5-5-----7-7-----|
D|-------------------------------------------------------|

e|-------------------------------------------------------|
B|-------------------------------------------------------|
G|2-2---------------------4-4------------7-7-----9-9-----|
D|2-2---------------------4-4------------7-7-----9-9-----|x3
A|0-0---------------------2-2------------5-5-----7-7-----|
D|-------------------------------------------------------|

Pre-Chorus	x1
chorus		x4 & interlude lead only x2

end on
e|---|
B|---|
G|-2-|
D|-2-|
A|-0-|
D|---|


im sure this is all correct but the interlude could be wrong. if u have any comments/corrections/complaints e-mail me @ ben@fdvhair.co.uk 
Comments