New Found Glory - Head On Collision Chords & Tabs

 

Head On Collision Chords & Tabs

New Found Glory Chords & Tabs

Version: 13 Type: Tab 0 ratings
1 star 2 stars 3 stars 4 stars 5 stars
comments

Head On Collision Tab

this is a great song to play and has a great solo. im pretty sure this version
is almost perfect. i stole the solo from ATNoodles. thanx dude

pm.= palm mute
x= mute with fretting hand 



intro (distortion)
e--------------------------------------------------------------
b--------------------------------------------------------------
g--------------------------------------777-666-777-6666666-----
d-------------------777777-99999999999-xxx-xxx-xxx-xxxxxxx-----
a-5457545454575454--777777-99999999999-555-444-555-4444444-----
e-------------------555555-77777777777-------------------------

e-----------------------------------------------
b-----------------------------------------------
g-----------------------------------------------
d-777777-9999999999------------------7----------
a-777777-9999999999-5457545454575454-7----------
e-555555-7777777777------------------5----------

verse (clean)            
e-----------------------------------------------------listen to the song for 
b-----------------------------------------------------timing and how many times
g-----------------------------------------------------to strum the chords
d-7-77-4-44--7-77--4-44--77777777-44444444------------
a-7-77-4-44--7-77--4-44--77777777-44444444------------
e-5-55-2-22--5-55--2-22--55555555-22222222------------

pre-chorus (distortion)
e----------------------------------------
b----------------------------------------
g----------------------------------------
d-22222222222222222222-22222222----------
a-22222222222222222222-22222222----------
e-00000000000000000000-00000000----------
pm                     ........

chorus (distortion)
e------------------------------------------------------------------------------
b------------------------------------------------------------------------------
g-------------------777-666-777-6666666----------------------------------------
d-777777-9999999999-xxx-xxx-xxx-xxxxxxx-777777-9999999999-----------------x2-7-
a-777777-9999999999-555-444-555-4444444-777777-9999999999-5457545454575454---7-
e-555555-7777777777---------------------555555-7777777777--------------------5-

verse

pre-chorus

chorus
[ Tab from: http://www.guitartabs.cc/tabs/n/new_found_glory/head_on_collision_tab_ver_13.html ]
solo (distortion)
e---------------------------------------------------------------------
b---------------------------------------------------------------------
g---------6-------9-------6---6h7p6-----------------------------------x2
d-----7-------7-------7-----------------7---9---7-----6h7-----6h7-----
a-0-0---0---0---0---0---0---0-------7-7---7---7---5-5-----7-7---------
e---------------------------------------------------------------------
pm. .   .   .   .   .   .           . .   .       . .     . .

e------------------------------------------------------------------------------
b------------------------------------------------------------------------------
g-77777777-----------------77777777-----------------77777777-some-type-of------
d-77777777-----6h7-----6h7-77777777-----6h7-----5h7-77777777-feedback/harmonic-
a-55555555-5-5-----7-7-----55555555-5-5-----7-7-----55555555-------------------
e------------------------------------------------------------------------------
           . .     . .

other guitar during solo (distortion)
e---------------------listen to song for
b---------------------timing on when to play
g-------77-99---------it
d-77-99-77-99---------
a-77-99-55-77---------
e-55-77---------------

thats it not that hard at all just listen to the song for timing. NEW FOUND GLORY ROX!

pre-chorus (distortion)
e------------------------------------------
b------------------------------------------
g------------------------------------------
d-2222222222222222-22-2-222-2-2222---------
a-2222222222222222-22-2-222-2-2222---------
e-0000000000000000-00-0-000-0-0000---------
pm                 .. . ... . ....

chorus

outro (distortion)
e--------------------------------------
b--------------------------------------
g---------6-------9-------6---6h7p6----x6
d-----7-------7-------7----------------
a-0-0---0---0---0---0---0---0----------
e--------------------------------------
pm. .   .   .   .   .   .   .

other guitar during outro (distortion)
e----------------------------------------------
b----------------------------------------------
g-------------------7777777777777777-----------
d-777777-9999999999-7777777777777777-----------x3
a-777777-9999999999-5555555555555555-----------
e-555555-7777777777----------------------------

e---------------------------------------------------------------------
b---------------------------------------------------------------------
g--------------------777-666-777-666-xxxx-----------------------------
d-7777------99999999-xxx-xxx-xxx-xxx-xxxx------------------7----------
a-7777-stop-99999999-555-444-555-444-xxxx-5457545454575454-7----------
e-5555------77777777---------------------------------------5----------
Comments