New Found Glory - Head On Collision Chords & Tabs

 

Head On Collision Chords & Tabs

New Found Glory Chords & Tabs

Version: 12 Type: Tab 0 ratings
1 star 2 stars 3 stars 4 stars 5 stars
comments

Head On Collision Tab

   
-------------------------------------------------------------------------------
			    Head on collision - New Found Glory
-------------------------------------------------------------------------------

Tabbed by: Zero is great man
Off the Albulm: Sticks and stones
Tuning:Standard(Right): EADGBe
Guitar 1: Plays lead
Guitar 2: Plays chords on top.[Follow the rhythem of guitar 1]
Play with distortion unless told to be played clean.

Guitar 2:Chord Diagram
   A5  B5  C#5  D5  F#5  E5
e|-------------------------|
B|-------------------------|
G|-2---4---6----7----------|
D|-2---4---6----7---4----2-|
A|-0---2---4----5---4----2-|
E|------------------2----0-|

Intro/Chorus fill 1:[Played with distortion, and maybe a little chorus]
e|-----------------------------------------|
B|-----------------------------------------|
G|-----------------------------------------|
D|-----------------------------------------|
A|-5-4p-5-7h-5-4p-5-4p-5--5-4p-4-7h-5-4p-5-|
E|-----------------------------------------|

Chorus Part 1: "Slightly bruised and broken..."
   A5         B5       D5 C#5 D5  C#5  D5
e|-0-0-0-0-0--0-0-0-0--------------------|
B|-0-0-0-0-0--0-0-0-0--------------------|
G|-6-6-6-6-6--8-8-8-8--7--6---7---6----7-|
D|-7-7-7-7-7--9-9-9-9--x--x---x---x----x-|
A|-7-7-7-7-7--9-9-9-9--5--4---5---4----5-|
E|-5-5-5-5-5--7-7-7-7--------------------|

Chorus Part 2: "I've never seen this side of you...."
   A5         B5        D5 C#5 D5  C#5  D5
e|-0-0-0-0-0--0-0-0-0--------------------|
B|-0-0-0-0-0--0-0-0-0--------------------|
G|-6-6-6-6-6--8-8-8-8---[Chorus fill 1]--|
D|-7-7-7-7-7--9-9-9-9--------------------|
A|-7-7-7-7-7--9-9-9-9--------------------|
E|-5-5-5-5-5--7-7-7-7--------------------|

Chorus Part 3: 
   A5    B5       D5 C#5 D5  C#5  D5
e|----------------------------------|
B|----------------------------------|
G|-------6---9---6-6-7p-6-7p-6-7p-6-|
D|-----7---7---7--------------------|
A|-7-7------------------------------|
E|----------------------------------|


Verse Part 1:"I've been waiting for a good day..."[Played Clean]
   A5   F#5  A5   F#5
e|--------------------|
B|-1-1-------1-1------|
G|-2-2--3-3--2-2--3-3-|
D|-2-2--4-4--2-2--4-4-|
A|-0-0--4-4--0-0--4-4-|
E|------2-2-------2-2-|
[ Tab from: http://www.guitartabs.cc/tabs/n/new_found_glory/head_on_collision_tab_ver_12.html ]
Verse Part 2: "It's not the dropping of the temperature.."[Played Clean]
   A5    F#5   A5    F#5
e|-------------------------|
B|-2-----------2-----------|
G|-2-----3-----2-----3-----|
D|-2(x6)-4(x6)-2(x6)-4-----|
A|-0-----4-----0-----4(x6)-|
E|-------2-----------2-----|

Pre-Chorus: "And it feels like I'm at an all time low."
   E5
e|--------|
B|--------|
G|-9------|
D|-9------|
A|-7(x10)-|
E|--------|
|--p.m.---|

Solo Part one:(After these words)"you were gone."
e|--------------------------------------------------------------|
B|--------------------------------------------------------------|
G|-------6---9---6-6-7p-6-7p-6-7p-6-----------------------------|
D|-----7---7---7-------------------------7-9-7------6-7-----6-7-|
A|-7-7-------------------------------7-7--------5-5-----7-7-----|
E|--------------------------------------------------------------|

Solo Part Two: (On the second time.)
   E5                               E5          E5     F#5
e|--------------------------------------------------------------|
B|--------------------------------------------------------------|
G|-------6---9---6-6-7p-6-7p-6-7p-6-----------------------------|
D|-----7---7---7-------------------------7-9-7------6-7-----6-7-|
A|-7-7-------------------------------7-7--------5-5-----7-7-----|
E|--------------------------------------------------------------|

Solo Part Three:
   D5
e|-------------------------------|
B|-------------------------------|
G|-7-7-7-7-7-7-7-7---------------|
D|-x-x-x-x-x-x-x-x--6-7------6-7-|
A|-5-5-5-5-5-5-5-5-------7-7-----|
E|-------------------------------|

Outro: End on This.
   A5
e|-0-|
B|-0-|
G|-6-|
D|-7-|
A|-7-|
e|-5-|

| /  slide up
| \  slide down
| h  hammer-on
| p  pull-off
| ~  vibrato
| +  harmonic
| x  Mute note


Intro                Verse part 2        Chorus part 3 x5
Chorus part 1        pre-chorus          chorus part 1
Chorus part 2        chorus part 1       chorus part 2 
chorus part 1        chorus part 2       outro
chorus part 2        chorus part 1
verse part 1         chorus part 2
verse part 2         solo
pre-chorus           solo part 2 x3
chorus part 1        solo part 3 x4
chorus part 2        pre-chorus
chorus part 1        chorus part 1
chorus part 2        chorus part 2
verse part 1         chorus part 1

That's everything, it's all right there in front of you, whew!, hope you enjoy it.
===============================================================================
Comments