New Found Glory - Head On Collision Chords & Tabs

 

Head On Collision Chords & Tabs

New Found Glory Chords & Tabs

Version: 10 Type: Tab 0 ratings
1 star 2 stars 3 stars 4 stars 5 stars
comments

Head On Collision Tab

-------------------------------------------------------------------------------
             		HEAD ON COLLISION – New Found Glory
-------------------------------------------------------------------------------

Tabbed by: Robby Plowman
Album: Sticks And Stones
Tuning: Standard
Distortion: High		hm=hammer on  ho=hammer off

Intro (dist.)
E|-----------------------------------------------------------|
B|-----------------------------------------------------------|
G|-----------------------------------------------------------|
D|-----------------x2----------------------------------------|
A|-5-4-5-7-5-4-5-4-------------------------------------------|
E|-----------------------------------------------------------|

Verse (clean) Guitar 1
E|-----------------------------------------------------------|
B|--------------------(dist.)--------------------------------|
G|---------x2-----x2----pm-----------------------------------|
D|-7-7-4-4----7-4-----2--2-----------------------------------|
A|-7-7-4-4----7-4-----2--2-----------------------------------|
E|-5-5-2-2----5-2-----0--0-----------------------------------|

Verse (clean) Guitar 2
E|-----------------------------------------------------------|
B|------------------(dist.)----------------------------------|
G|---------x2----x2----pm------------------------------------|
D|-7-7-4-4----7------2--2------------------------------------|
A|-7-7-4-4----7------2--2------------------------------------|
E|-5-5-2-2----5------0--0------------------------------------|


Chorus (dist.) Guitar 1
E|-----------------------------------------------------------|
B|-----------------------------------------------------------|
G|------7-6-7-6----------------------x2----------------------|
D|-7-9----------7-9------------------------------------------|
A|-7-9----------7-9--5-4-5-7-5-4-5-4-------------------------|
E|-5-7----------5-7------------------------------------------|

Chorus (dist.) Guitar 2
E|-----------------------------------------------------------|
B|-----------------------------------------------------------|
G|------7--------7—x2----------------------------------------|
D|-7-9--7---7-9--7-------------------------------------------|
A|-7-9--5---7-9--5-------------------------------------------|
E|-5-7------5-7----------------------------------------------|





[ Tab from: http://www.guitartabs.cc/tabs/n/new_found_glory/head_on_collision_tab_ver_10.html ]
Solo Guitar 1
E|-----------------------------------------------------------|
B|-----------------------------------------------------------|
G|---6---9---6-6-hm-7-ho-6------------pm--------------x2-----|
D|-7---7---7----------------7-9-7-6-0-0-0-6-7-pm--6-7--------|
A|--------------------------------------------7-7------------|
E|-----------------------------------------------------------|

Solo Guitar 2  (You’ll have to figure out when to play this)
E|-----------------------------------------------------------|
B|----------pm--pm-------------------------------------------|
G|--pm--pm--7---9--------------------------------------------|
D|--7---9---7---9--------------------------------------------|
A|--7---9---5---7--------------------------------------------|
E|--5---7----------------------------------------------------|

Solo Part 2 Guitar 1
E|-----------------------------------------------------------|
B|-----------------------------------------------------------|
G|-----7--pm--------------x3--------pm-----------------------|
D|-----7--0-0-6-7-pm--6-7---------2-2------------------------|
A|-----5----------7-7-------------2-2------------------------|
E|--------------------------------0-0------------------------|

Solo Part 2 Guitar 2
E|-----------------------------------------------------------|
B|-----------------------------------------------------------|
G|-----7--------x3------------------pm-----------------------|
D|-----7--------------------------2-2------------------------|
A|-----5--------------------------2-2------------------------|
E|--------------------------------0-0------------------------|

Chorus Part 2 Guitar 1
E|-----------------------------------------------------------|
B|-----------------------------------------------------------|
G|---6---9---6-6-hm-7-ho-6--x6-------7-6-7-6-----------------|
D|-7---7---7--------------------7-9--------------------------|
A|------------------------------7-9--------------------------|
E|------------------------------5-7--------------------------|

Chorus Part 2 cont Guitar 1
E|-----------------------------------------------------------|
B|-----------------------------------------------------------|
G|-----------------x2----------------------------------------|
D|-----------------------------------------------------------|
A|-5-4-5-7-5-4-5-4-------------------------------------------|
E|-----------------------------------------------------------|

Chorus Part 2 Guitar 2
E|-----------------------------------------------------------|
B|-----------------------------------------------------------|
G|-----7—x4---7----------------------------------------------|
D|-7-9-7------7-7--------------------------------------------|
A|-7-9-5------5-7--------------------------------------------|
E|-5-7----------5--------------------------------------------|


Intro
Chorus
Verse
Chorus
Verse
Chorus
Solo
Solo Part 2
Chorus
Chorus Part 2

Please rate, this is really close, I think.  You’ll have to 
figure out how many strokes by your self but that’s not hard.
Comments